Every Time I Die - Shes My Rushmore tab

Every Time I Die
She's My Rushmore


|--------------------| |-------------------||--------------------| |-------------------||--------------------| |-------------------||--------------------| |-------------------||---------3p0-0-2p0--| |---------6p0-0-5p0-||-3p0-4p0------------|x4|-6p0-8p0-----------|x4
|--------------------------------------------||--------------------------------------------||--------------------------------------------||--------------------------------------------||------------11p0-10p0-------------11p0-10p0-||-10h11h12p0-----------10h11h12-0------------|x4
|-------------------||-------------------||-------------------||-------------------||---------3p0-0-2p0-||-3p0-4p0-----------|x4
|-----------------||-----------------||-----------------||-----3/2-----2/1-||-3/4-3/2-2-3-2/1-||-3/4-----2/3-----| x2
|---------------------------------------------------------------------------------||---------------------------------------------------------------------------------||---------------------------------------------------------------------------------||---------------------------------------------------------------------------------||-1-4-3-1----0000-0000-00-1-4-3-1----0000-0000-00-1-4-3-1---------1-4-3-1-00-000--||-1-4-3-1----0000-0000-00-1-4-3-1----0000-0000-00-1-4-3-100000000-1-4-3-1-00-000--| .... .... .. .... .... .. ........ .. ...
|-----------------------------------| |-----------------------------------| |-----------------------------------| |-----------------------------------| |---------3p0-2p0-----------3p0-2p0-| |-1p0-2p0---------1p0-0-2p0---------|
|-------------------------||-------------------------||-------------------------||-----3-2-----------------||-1-2-3-2-3p0-2p0---------||-1-2-------------2p0-1p0-|
|--------------------||--------------------||--------------------||--------------------||-2-44-44----2-44-44-||-2-44-44----2-44-44-|
|---------||---------||---------||-----3-2-||-3-4-3-2-| |-3-4-----|
Tap to rate this tab
 
# A B C D E F G H I J K L M N O P Q R S T U V W X Y Z