Excel - The Jokes On You tab

Author/Artist: Excel
Title: The Joke's on You
Album: Split Image
Transcribed by: Boles
Email: boles2012@yahoo.com

Tuning: 1/2 step down Eb. Play each riff once unless otherwise
noted (x4).


Intro----------------------------------------------------------------|----------------------------------------------------------------|----------------------------------------------------------------|2---------------9-----------------------------------------------|2---------------7---------------5---------------7-/-8-\-7-------|0-------------------------------3---------------5-/-6-\-5-------|
----------------------------------------------------------------|----------------------------------------------------------------|----------------------------------------------------------------|2---------------9---------------5-------5-------7-/-8-\-7-------|2---------------7---------------3-------3-------5-/-6-\-5-------|0---------------------------------------------------------------|
----------------------------------------------------------------|----------------------------------------------------------------|----------------------------------------------------------------|2---------------9-----------------------------------------------|2---------------7---------------5-------5-------7-/-8-\-7-------|0----------------------------0--3-------3-------5-/-6-\-5-------|
.----------------------------------------------------------------|----------------------------------------------------------------|----------------------------------------------------------------|2---------------9-----------------------------------------------|2---------------7---------------5-------12\-----3-/-5-\-3-------|0----------------------------0--3---------------1-/-3-\-1-------|
.----------------------------------------------------------------|----------------------------------------------------------------|----------------------------------------------------------------|2---------------9-----------------------------------------------|2---------------7---------------5-------5-------7-/-8-\-7-------|0----------------------------0--3-------3-------5-/-6-\-5-------|
.----------------------------------------------------------------|----------------------------------------------------------------|----------------------------------------------------------------|2---------------9---------------5-------5-------7-/-8-\-7-------|2---------------7---------------3-------3-------5-/-6-\-5-------|0---------------------------------------------------------------|
----------------------------------------------------------------|----------------------------------------------------------------|----------------------------------------------------------------|2---------------9-----------------------------------------------|2---------------7---------------5-------5-------7-/-8-\-7-------|0----------------------------0--3-------3-------5-/-6-\-5-------|
.----------------------------------------------------------------|----------------------------------------------------------------|----------------------------------------------------------------|2---------------9-----------------------------------------------|2---------------7---------------5-------12\-----3-/-5-\-3-------|0----------------------------0--3---------------1-/-3-\-1-------| .
--------------------------------|--------------------------------|----------------4-----4-3-------| x82-------4/5\4---2-----2-1---3---|0---0-0-2/3\2-------0-------1---|
. . .--------------------------------|--------------------------------|--------------------------------| x8----------------4-4---4-3-------|2-2-2-2-5-5-5-5-2-2---2-1---3---|0-0-0-0-3-3-3-3-------------1---|
----------------------------------------------------------------|----------------------------------------------------------------|----------------------------------------------------------------| x49-9-9-9-9-9-9-9-5-5-5-5-5-5-5-5-4-4-4-4-4-4-4-4-----5-------5---|7-7-7-7-7-7-7-7-3-3-3-3-3-3-3-3-2-2-2-2-2-2-2-2-----5-------5---|------------------------------------------------0-0-3---0-0-3---| . . . .
--------------------------------|--------------------------------|--------------------------------| x4----------------4-4---4-3-------|2-2-2-2-5-5-5-5-2-2---2-1---3---|0-0-0-0-3-3-3-3-------------1---|
----------------------------------------------------------------|----------------------------------------------------------------|----------------------------------------------------------------| x49-9-9-9-9-9-9-9-5-5-5-5-5-5-5-5-4-4-4-4-4-4-4-4-----5-------5---|7-7-7-7-7-7-7-7-3-3-3-3-3-3-3-3-2-2-2-2-2-2-2-2-----5-------5---|------------------------------------------------0-0-3---0-0-3---| . . . .
----------------------------------------------------------------|----------------------------------------------------------------|----------------------------------------------------------------|----5-------5---2-----------------------------------------------|----5-------5---2-----------------------------------------------|0-0-3---0-0-3---0-----------------------------------------------|
. . . .--------------------------------|--------------------------------|--------------------------------|------------------3-3-3-3-3-3-3-|-15\--------------1-1-1-1-1-1-1-|--------------------------------| . . . . . .
--------------------------------|--------------------------------|--------------------------------| x47-9-------------4-3-------------|5-7-----4-5-----2-1-1-1-1-1-1-1-|----0-0-2-3-0-0-----------------|
. . . . . . . . . .--------------------------------|--------------------------------|--------------------------------| x4----------------4-3-------------|2-3-----4-5-----2-1-------------|0-1-0-0-2-3-0-0-----0-0-0-0-0-0-|
. . . . . . . . . .--------------------------------|--------------------------------|--------------------------------|7-9-------------4-3-------------|5-7-----4-5-----2-1-1-1-1-1-1-1-|----0-0-2-3-0-0-----------------| . . . . . . . . . .
--------------------------------|--------------------------------|--------------------------------|7-9-------------4-3-------------|5-7-----4-5-----2-1-------------|----0-0-2-3-0-0-----------------| . . . .
--------------------------------|--------------------------------|--------------------------------|7-9-------------4-3-------------|5-7-----4-5-----2-1-1-1-1-1-1-1-|----0-0-2-3-0-0-----------------| . . . . . . . . . .
--------------------------------|--------------------------------|--------------------------------|7-9-------------4-3-------------|5-7-----4-5-----2-1-------------|----0-0-2-3-0-0-----------------| . . . .
End
Tap to rate this tab
 
# A B C D E F G H I J K L M N O P Q R S T U V W X Y Z