Explosions In The Sky - Memorial tab

memorial intro 
explosions in the sky




---10-7-----9-5-------|----------------------|-9-------9------------|----------------------|----------------------|----------------------|
---10-7-----9-5-------| ----------------------|----------------------| -------6-5----10-5----|-9-------9------------| -9/7-7------7---------|----------------------| ----------------------|----------------------| ----------------------|----------------------| ----------------------|
-------------------------|---6-5-------------------|-7-------7-6/2-----------|-------------------------|-------------------------|-------------------------|
---10-7---------------|-----------10---------|-9-------9------------|----------------------|----------------------|----------------------|
---10-7-----9-5-------| ----------------------|----------------------| -------6-5----10-5----|-9-------9------------| -9/7-7------7---------|----------------------| ----------------------|----------------------| ----------------------|----------------------| ----------------------|
-------------------------|---6-5-------------------|-7-------7-6/2-----------|-------------------------|-------------------------|-------------------------|
--10-7-----9-5--------|----------------------|--------9-------------|----------------------|----------------------|----------------------|
---10-7-----9-5-------| ----------------------|----------------------| -------6-5----10-5----|-9-------9------------| -9/7-7------7---------|----------------------| ----------------------|----------------------| ----------------------|----------------------| ----------------------|
-------------------------|---6-5-------------------|-7-------7-6/2-----------|-------------------------|-------------------------|-------------------------|
Tap to rate this tab
 
# A B C D E F G H I J K L M N O P Q R S T U V W X Y Z