Explosions In The Sky - With Tired Eyes Tired Minds Tired Souls We Slept tab

Explosions in The Sky 
With tired eyes, tired minds, tired souls, we slept. 
Tabbed by: Steve Heller + Rockface
Standard Tuning:  E A D G B E


Gtr I [D 1]  (0:21 to 2:26)

|---------------------------|--8----8----8------(8)-----||---------------------------|---------------------------||--10-----10-----9-----9----|--(9)----------------------||-----12-----12----10----10-|--(10)---------------------| (3x)|---------------------------|---------------------------||---------------------------|---------------------------|
|---------------------------|---------------------------||---------------------------|--10-----------------------||--10-----10-----9-----9----|--------9-----10-----9-----||-----12-----12----10----10-|----10----10-----10----10--||---------------------------|---------------------------||---------------------------|---------------------------|
Note as a whole: [D 1] is played Gtr I [D 2] (2:38 to 3:49)
|---------------------------|---------------------------||-----13-13----15-----------|--------13-13-13-----------||--14-------14----15-15-15--|-----15----------14-14-14--||---------------------------|--15-----------------------| (3x)|---------------------------|---------------------------||---------------------------|---------------------------|
|---------------------------|---------------------------||-----13-13----15-----------|---------------------------||--14-------14----15-15-15--|-----15/17-17-17-14-14-14--||---------------------------|--15-----------------------||---------------------------|---------------------------||---------------------------|---------------------------|
|---------------------------|---------------------------||-----13-13----15-----------|--------13-13-13-----------||--14-------14----15-15-15--|-----15----------14-14-14--||---------------------------|--15-----------------------||---------------------------|---------------------------||---------------------------|---------------------------|
|---------------------------|---------------------------||-----13-13----15-----------|--13-13-13-15-15-----------||--14-------14----15-15-15--|-----------------14-14-14--||---------------------------|---------------------------||---------------------------|---------------------------||---------------------------|---------------------------|
|---------------------------|---------------------------||-----13-13----15-----------|--------13-13-13-----------||--14-------14----15-15-15--|-----15----------14-14-14--||---------------------------|--15-----------------------||---------------------------|---------------------------||---------------------------|---------------------------|
|---------------------------|---------------------------||-----13-13----15-----------|--13-13-13-13-13-----------||--14-------14----15-15-15--|-----------------14-14-14--||---------------------------|---------------------------||---------------------------|---------------------------||---------------------------|---------------------------|
|---------------------------|---------------------------||-----13-13----15-----------|--------13-13-13-----------||--14-------14----15-15-15--|-----15----------14-14-14--||---------------------------|--15-----------------------||---------------------------|---------------------------||---------------------------|---------------------------|
|---------------------------|---------------------------||-----13-13----15-----------|--13-13-13-15-15-----------||--14-------14----15-15-15--|-----------------14-14-14--||---------------------------|---------------------------||---------------------------|---------------------------||---------------------------|---------------------------|
|---------------------------|---------------------------||-----13-13----15-----------|--------13-13-13-----------||--14-------14----15-15-15--|-----15----------14-14-14--||---------------------------|--15-----------------------||---------------------------|---------------------------||---------------------------|---------------------------|
|---------------------------|---------------------------||-----13-13----15-----------|--13-13-13-13-13-----------||--14-------14----15-15-15--|-----------------14-14-14--||---------------------------|---------------------------||---------------------------|---------------------------||---------------------------|---------------------------|
Gtr 1 D4 (3:50 to 4:26) B B B B |---------------------------|---------------------------||---------------------------|---------------------------||---------------------------|---------------------------||--12-12-12-12-12-12-12-12--|--12-12-12-12-12-12-12-12--| (12x)|---------------------------|---------------------------||--10-10-10-10-10-10-10-10--|--10-10-10-10-10-10-10-10--|
Note: play around with the Bend, it is severe… have fun! Gtr 1 D5 (4:27 to 5:01)
|---------------------------|---------------------------||---------------------------|---------------------------||---------------------------|---------------------------| |--7------------7-----------|--7-----------7------------| (3x) |-----8-----8-----8------8--|-----8-----8-----8------8--||--------10----------10-----|---------10----------10----|
Note: slide into the A note on the 5 fret from last diagram
|---------------------------|---------------------------||---------------------------|---------------------------||---------------------------|---------------------------||--------------2----0--(0)--|---------0----2----0--(0)--||------4-(4)----------------|-----2---------------------||-10/5-------5----5---------|--3--------3-----3---------|
|---------------------------|---------------------------||---------------------------|---------------------------||---------------------------|---------------------------||--7------------7-----------|--7-----------7------------| (2x)|-----8-----8-----8------8--|-----8-----8-----8------8--||--------10----------10-----|---------10----------10----|
|---------------------------|---------------------------||---------------------------|---------------------------||---------------------------|---------------------------||--------------2----0--(0)--|---------0----2----0--(0)--||-----4-(4)-----------------|-----2---------------------||--/5-------5----5----------|--3--------3-----3---------|
Gtr I [D 5] (5:02 to 6:50)
|---------------------------|---------------------------||---------------------------|---------------------------||-------5-------------5-----|-------5-------------5-----||--7-------7----7--------7--|--7-------7----7--------7--| |-----8------------8--------|-----8------------8--------||---------------------------|---------------------------|
|-------------------------------------------------------||-------------------------------------------------------||-------------------------------------------------------||--7--7--7--7--7--7--7--7-////--5--5--5--5--5--5--5--5--| |-------------------------------------------------------||-------------------------------------------------------|
|---------------------------|---------------------------||---------------------------|---------------------------||-------5-------------5-----|-------5-------------5-----||--7-------7----7--------7--|--7-------7----7--------7/-| |-----8------------8--------|-----8------------8--------||---------------------------|---------------------------|
|-------------------------------------------------------||-------------------------------------------------------||-------------------------------------------------------||-/12-12-12-12-12-12-12-12--\--10-10-10-10--\--9-9-9-9--||-------------------------------------------------------||-------------------------------------------------------|
|---------------------------||---------------------------||--10--12-12-10-9--12-12-9--||---------------------------| (7x)|---------------------------||---------------------------|
|---------------------------||---------------------------||--12--9-10--12-9--12-12-9--||---------------------------||---------------------------||---------------------------|
|---------------------------|---------------------------||---------------------------|---------------------------||-------5-------------5-----|-------5-------------5-----||--7-------7----7--------7--|--7-------7----7--------7--| |-----8------------8--------|-----8------------8--------||---------------------------|---------------------------|
|-------------------------------------------------------||-------------------------------------------------------||-------------------------------------------------------||--5--5--5--5--7--7--7--7--10--10--10--10--9--9--9--9---||-------------------------------------------------------||-------------------------------------------------------|
|---------------------------|---------------------------||---------------------------|---------------------------||-------5-------------5-----|-------5-------------5-----||--7-------7----7--------7--|--7-------7----7--------7/-| |-----8------------8--------|-----8------------8--------||---------------------------|---------------------------|
|-------------------------------------------------------||-------------------------------------------------------||-------------------------------------------------------||-/12-12-12-12-12-12-12-12--\--10-10-10-10--\--9-9-9-9--||-------------------------------------------------------||-------------------------------------------------------|
|---------------------------||---------------------------||--10--12-12-10-9--12-12-9--||---------------------------| (7x)|---------------------------||---------------------------|
|---------------------------||---------------------------||--12--9-10--12-9--12-12-9--||---------------------------||---------------------------||---------------------------|
|---------------------------|---------------------------||---------------------------|---------------------------||-------5-------------5-----|-------5-------------5-----||--7-------7----7--------7--|--7-------7----7--------7/-| |-----8------------8--------|-----8------------8--------||---------------------------|---------------------------|
|-------------------------------------------------------||-------------------------------------------------------||-------------------------------------------------------||--5--5--5--5--7--7--7--7--10--10--10--10--9--9--9--9---||-------------------------------------------------------||-------------------------------------------------------|
|---------------------------|---------------------------||---------------------------|---------------------------||-------5-------------5-----|-------5-------------5-----||--7-------7----7--------7--|--7-------7----7--------7/-| |-----8------------8--------|-----8------------8--------||---------------------------|---------------------------|
|-------------------------------------------------------||-------------------------------------------------------||-------------------------------------------------------||--/12-12-12-12-12-12-12-12—12/14-14-14--15--15--15-----||-------------------------------------------------------||-------------------------------------------------------|
Gtr I [D 6] (6:51 to 8:00) Enter Distortion
|---------------------------|---------------------------||---------------------------|---------------------------||--------10----------9------|----------12---------9-----|\|---------------------------|---------------------------| \|--12-12----12----10---10---|--(10)-12----12---10---10--| \|---------------------------|---------------------------| \
\ (3x)|---------------------------|---------------------------| /|---------------------------|---------------------------| /|---------------------------|---------------------------| /|---------------------------|---------------------------| / |--/12-—12--10--7—-(7)--7---|--7--7—-7--3--3------------|/|---------------------------|---------------------------|
T T T T T T T T T T T T T T T T T |--12-12-12-12-12--10-9-10--|--12-12-12-12-12--10-9-10--| |---------------------------|---------------------------| |---------------------------|---------------------------|\ |---------------------------|---------------------------| \ |---------------------------|---------------------------| \|---------------------------|---------------------------| \ (3x)
T T T T T T T T T /|--12-12-12-12-12--10-9-10--|--(10)---(10)----9----(9)--| / |---------------------------|---------------------------| / |---------------------------|---------------------------|/ |---------------------------|---------------------------| |---------------------------|---------------------------||---------------------------|---------------------------|
Gtr I [D 7] (8:20 to 9:29)
|---------------------------|---------------------------||---------------------------|---------------------------||--10---(10)---(10)---(10)--|--12---(12)---(12)---(12)--|\|--12---(12)---(12)---(12)--|--12---(12)---(12)---(12)--| \|---------------------------|---------------------------| \|---------------------------|---------------------------| \
\(2x)|---------------------------|---------------------------| /|---------------------------|--13---(13)---(13)---(13)--| /|--14---(14)---(14)---(14)--|---------------------------| /|--12---(12)---(12)---(12)--|--12---(12)---(12)---(12)--| /|---------------------------|---------------------------|/|---------------------------|---------------------------|
|--10---(10)---(10)---(10)--|--12---(12)---(12)---(12)--||---------------------------|---------------------------||---------------------------|---------------------------|\|--12---(12)---(12)---(12)--|--12---(12)---(12)---(12)--| \|---------------------------|---------------------------| \|---------------------------|---------------------------| \
\(2x)|--13---(13)---(13)---(13)--|--15---(15)---(15)---(15)--| /|---------------------------|---------------------------| /|---------------------------|---------------------------| /|--12---(12)---(12)---(12)--|--12---(12)---(12)---(12)--| /|---------------------------|---------------------------|/|---------------------------|---------------------------|
|---------------------------|---------------------------||---------------------------|---------------------------||--10---(10)---(10)---(10)--|--12---(12)---(12)---(12)--||--12---(12)---(12)---(12)--|--12---(12)---(12)---(12)--| |---------------------------|---------------------------| |---------------------------|---------------------------|
|---------------------------|---------------------------| |---------------------------|--13---(13)---(13)---(13)--| |--14---(14)---(14)---(14)--|---------------------------| |--12---(12)---(12)---(12)--|--12---(12)---(12)---(12)--| |---------------------------|---------------------------||---------------------------|---------------------------|
|---------------------------||---------------------------||--10---(10)---(10)---(10)--||--12---(12)---(12)---(12)--| |---------------------------| |---------------------------|
Gtr 1 [D 8] (9:30 to 11:27) (7x) (1x)
|-------------------14--17--|-------------------17--14--||--17--17--15--17-----------|--17--17--15--17-----------||---------------------------|---------------------------||---------------------------|---------------------------||---------------------------|---------------------------||---------------------------|---------------------------|
|---------------------------|---------------------------||--17--17--15---------------|--17--17--15---------------||--------------16--18--14---|---------------16--18—-----||---------------------------|-----------------------17--||---------------------------|---------------------------||---------------------------|---------------------------|
|---------------------------|---------------------------||--17--17--15---------------|--17--17--15---------------||---------------18--16------|---------------16--14—-----||-----------------------17--|-----------------------16--||---------------------------|---------------------------||---------------------------|---------------------------|
|-------------------14--17--|-------------------17--14--||--17--17--15--17-----------|--17--17--15--17-----------||---------------------------|---------------------------| (2x)|---------------------------|---------------------------||---------------------------|---------------------------||---------------------------|---------------------------|
|---------------------------|---------------------------||--17--17--15---------------|--17--17--15---------------||--------------16--18--14---|---------------16--18—-----||---------------------------|-----------------------17--||---------------------------|---------------------------||---------------------------|---------------------------|
|---------------------------|---------------------------||--17--17--15---------------|--17--17--15---------------||---------------18--16------|---------------16--14—-----||-----------------------17--|-----------------------16--||---------------------------|---------------------------||---------------------------|---------------------------|
|-------------------14--17--|-------------------17--14--||--17--17--15--17-----------|--17--17--15--17-----------||---------------------------|---------------------------| (2x)|---------------------------|---------------------------||---------------------------|---------------------------||---------------------------|---------------------------|
|---------------------------|---------------------------||--17--17--15---------------|--17--17--15---------------||--------------16--18--14---|---------------16--18—-----||---------------------------|-----------------------17--||---------------------------|---------------------------||---------------------------|---------------------------|
|---------------------------|---------------------------||--17--17--15---------------|--17--17--15---------------||---------------18--16------|---------------16--14—-----||-----------------------17--|-----------------------16--||---------------------------|---------------------------||---------------------------|---------------------------|
|-------------------14--17--|-------------------17--14--||--17--17--15--17-----------|--17--17--15--17-----------||---------------------------|---------------------------| (2x)|---------------------------|---------------------------||---------------------------|---------------------------||---------------------------|---------------------------|
|-------------------14--17--|-------------------14--17--||--17--17--15--17-----------|--17--17--15--17-----------||---------------------------|---------------------------| |---------------------------|---------------------------||---------------------------|---------------------------||---------------------------|---------------------------|
|-------------------14--17--|-------------------17--14--||--17--17--15--17-----------|--17--17--15--17-----------||---------------------------|---------------------------| |---------------------------|---------------------------||---------------------------|---------------------------||---------------------------|---------------------------|
|-------------------17--14--|-------------------17--14--||--17--17--15--17-----------|--17--17--15--17-----------||---------------------------|---------------------------| |---------------------------|---------------------------| (2x)|---------------------------|---------------------------||---------------------------|---------------------------|
Questions, comments, suggestions? Email: sheller_sh@yahoo.com
Tap to rate this tab
 
# A B C D E F G H I J K L M N O P Q R S T U V W X Y Z