Extol - Gloriana tab

Gloriana
by EXTOL (Album: Blueprint Dives)
Label: Century Media Records

One of the best tracks on the album
...I just love this band!

by peteR
peter@silendril.com
(comments and corrections please!)


drop E to D and rock:


(just to get into the beat i try to keep it as detailed as possible:)


Intro *******************************************00:00

9/8

--------------------|--------------------|--------------------|--------------------|-0-0-0-8-8-8-8-8-8--|-0-0-0-6-6-6-6-8-8--|
9/8
--------------------------|--------------------------|-8>77-7-------------------|-8>77-7-------------------|-6>55-5-10-10-10-10-10-10-|--------10-10-10-10-10-10-|
6/8
---------------|---------------|---------------|---------------|-8-8-8-8>6-6-6-|-8-8-8-8>6-6-6-|
2nd time: 9/8
--------------------|--------------------|--------------------|--------------------|-0-0-0-8-8-8-8-8-8--|-0-0-0-6-6-6-6-8-8--|
9/8
--------------------|--------------------|-8>77-7-------------|-8>77-7-------------|-6>55-5-8-8-8-8-8-8-|--------8-8-8-8-8-8-|
6/8
--------------------------|--------------------------|--------------------------|--------------------------|-6-6-6-6-6-10-10-10-10-10-|-6-6-6-6-6-10-10-10-10-10-|
ext. intro *******************************************00:15 (go) you are sweet as wheat and white as wool the depth of your eyes goes deep into the night verse A *******************************************00:29 6/8 (i couldnt figure the guitar chords out yet, they are basically the intro notes, anyway - here are the bass notes upon you can put the guitar chords - if you find them ;-)= D C i want to embrace you Bb G D let myself go Bb G D into your tender kiss (break - almost a note) with hands inviting me you move with wedded bliss chorus A1 *******************************************00:59 (play like intro) oh place your hand on my soul your name be gloriana *******************************************01:14 (6/4)
------------|------------|-66666-66666-66666-66666-44444-44444------------
chorus A2 *******************************************01:16 (6/4) touch me still for by grace be you only you are and your name be gloriana
-2---------------2------------|-4-----4---------4-----4------|-4-------4-------4-------4----|-2---2-----2-----2---2-----2--|-2-2-------------2-2----------|-2---------------2------------|
do the same with: -5 -7 -7 -5 -5 -5 -0 -2 -2 -0 -0 -0 -2 -3 -2 -2 -2 -2 -5 -7 -7 -5 -5 -5 -0 and 0 -2 3 -2 2 -0 0 -0 0 -0 3 verse B *******************************************01:41 and then a pure:
-2----3----2----2----2--0-2--0
your calm ways clear my mind drive me towards you you protect me from myself your breath inspirits me you hair blows through my face intro *******************************************02:12 you remove it from my lips your name be gloriana chorus A3 *******************************************02:29 touch me still for by grace be you only you are and your name be gloriana (rep. 2X) Out:
-2--5-4--7-4--7-2--5-2--5-2--5
hey.. that was fun ;)=
Tap to rate this tab
 
# A B C D E F G H I J K L M N O P Q R S T U V W X Y Z