Extreme - More Than Words tab

Extreme - More than Words
Lewt's Arrangement.

At the request from one of my contributor I upload Tab version of my Guitar Pro files 
(Not everyone has guitar pro) Sorry if this one is a little messy but there's nothing much 
I could do about it.

Enjoy


E |-----3-----3L-3--3-----3L---|--3--3--------3.-3----------|B |-----3-----3L-3--3-----3L---|--3--3--------3.-3-----1L---|G |-----0--x--0L-0--0--x--0L---|--0--0--x--------0--x--0L---|D |-----0--x--------0--x-------|-----2--x-----------x--2L---|A |--------x--2L-2--2--x--3L---|--3--3--x--3.-3.-3--x--0L---|E |--3-----x-----------x-------|--------x-----------x-------|
-----0--------3.------------|-----0-----2-----3-----3L---|--1--1--------1.-1-----1L---|--1--1-----3-----3-----3L---|--0--0--x--------0--x--0L---|--0--0--x-----2-----x--0L---|--2--2--x-----------x-------|-----2--x--0--------x-------|--0--0--x--0.-0.-0--x--3L---|--3--3--x-----------x-------|--------x-----------x-------|--------x-----------x--3L---|
--3--3-----3L-3--3-----3L---|--3--3--------3.-3----------|--3--3-----3L-3--3-----3L---|--3--3--------3.-3-----1L---|--0--0--x--0L-0--0--x--0L---|--0--0--x--------0--x--0L---|--------x--------0--x-------|-----2--x-----------x--2L---|--------x--2L-2--2--x--3L---|--3--3--x--3.-3.-3--x--0L---|--3--3--x-----------x-------|--------x-----------x-------|
-----0--------3.------------|-----0-----2-----3-----3----|--1--1--------1.-1-----1L---|--1--1-----3-----3-----3----|--0--0--x--------0--x--0L---|--0--0--x-----2--2--x--0----|--2--2--x-----------x-------|-----2--x--0--------x--0----|--0--0--x--0.-0.-0--x--3L---|--3--3--x-----------x-------|--------x-----------x-------|--------x-----------x--3----|
----------------------------|--0-------------------------|--------------0--3h-0-------|-----------3-----------3----|--------0-------------------|--------0-----0-----0-------|-----0-----0----------------|-----2-----------2----------|----------------------------|--3--------3----------------|--3-----------3-------------|----------------------------|
--------0-------------------|--------0-------------------|--3-----1--3-----3-----3----|--3--------3-----1-----3----|-----0----------------------|-----0----------------------|--------------------2-------|--------------0-----0-------|--0-----------0-------------|--3-------------------------|----------------------------|----------------------------|
----------------------------|--0-------------------------|-----------0--0--3h-0-------|-----------3-----------3----|--------0-------------------|--------0-----0-----0-------|-----0--------0-------------|-----2-----------2----------|----------------------------|--3--------3----------------|--3-------------------------|----------------------------|
--------0-------------------|--------0-------------------|--3--------3-----3-----3----|--3--------3-----1-----0----|-----0----------------------|-----0--------------x-------|--------------------2-------|--------------0-----x-------|--0-----------0-------------|--3-----------------x-------|----------------------------|----------------------------|
^----------------------------|--------------0-------------|--------0-------------------|-----2-----2--2-------------|----------------------------|--0-----------0-------------|
^----------------------------------------------------|--1-----------------1h-0----------------------------|--0-----------------------2-------------------------|--2-------------------------------------------------|--0-----------------------0-------------------------|----------------------------------------------------|
--------0-------------------|--3--------3-----1h-0--0----|----------------------------|-----0----------------------|----------------------------|--2-----------2--------3----|
--------------------------------------------3h-2----|--------0-----------0-----------3-------------------|--0-----------0-----------0-----------2-------------|----------------------------------------------------|----------------------------------------------------|--------3-----------3-----------2-----------0-------|
^--3-----------0--0-----0----|----------------------------|--------0-------------------|--------------1--------1----|-----0-----0--------0-------|--------0-----0-------------|----------------------------|-----2-----2--2-------------|----------------------------|--0-----------0-------------|--------------0-------------|----------------------------|
^--2-----2--0-----2h-3--1----|-----1-----1-----3h-1--1h---|--3--------------------0----|-----0-----0----------------|--2-------------------------|----------------------------|--0-----------0-------------|--x-----------x-------------|----------------------------|--x-----------x-------------|-----------------------3----|--x-----3-----x-------------|
--0--------------------3L---|--3-------------------------|--------------3h-1----------|-----4-----3-----1-----1L---|--------0-----------0-------|--------0-----------0-------|-----2-----2----------------|----------------------------|--3-----------3--------3L---|--3-----------3--------3L---|----------------------------|----------------------------|
----------------------------------------------------|--1-----3h-1--0-----------0-----0-----------3L------|--------------------------------------0-----4L------|----------------------------------------------------|--3-------------------------------------------------|--------3-----------------3-----------------3L------|
^ ^ ^-----0-----------------0----|--0-------|--2--------2----------------|--3--1----------------------|--1--1----|--1-----------1-----1-------|--4-------------------------|--0--2----|--2--------------2----------|----------------------------|-----2----|--0-------------------------|----------------------------|--0--0----|----------------------------|--3--0----------------------|----------|----------------------------|
----------------------------|--5-----------3--------0h---|--0-----------0-------------|--------0-----------3-------|--------0-----------0-------|-----0-----0-----0----------|-----0-----0-----0-----0----|----------------------------|----------------------------|--------------2-------------|--3-----------3-------------|--3-------------------------|
--2-----------------------------------------------------------------------------|--------------------------------------------------3-----------3-----------1-----|--------------------------2-----------------------------------------------------|--------------0-----------------------0-----------0-----------------------------|--------------------------------------------------------------------------------|--------------------------------------------------------------------------------|
------3s-5L------------|-----------------------|-----------------------|-----------------------|-----------------------|---------0L------------|
--5-----------3-----------------------5-----------------------5s-7L----------7--|--------------------------0-----------------------0-----------------------------|--------------------------------------------------------------------------------|--------------------------------------------------------------------------------|--------------------------------------------------------------------------------|--0--------------------------------------------------------------0--------------|
^---------3-------------|--0-----------0--0-----0----|-----------------------|--------1-----1--1-----1----|-----------------------|-----0-----0--0-----0-------|-----------------------|----------------------------|-----------------------|--3-----------3-------------|-----------------------|----------------------------|
--------------0-----------------------------0-------|--------------------3-----------1--------------3----|--------0-----------------------------0-------------|----------------------------------------------------|--3-----------------------3-------------------------|----------------------------------------------------|
^--0-----------0--0-----2----|-----2-----2-----0----------|--1-----1-----1--1-----1----|-----1-----1-----1-----3----|-----2-----2--2--------2----|-----2-----2-----------4----|--------------------x-------|--0-----x-----0-----x-------|--0-----------0-----x-------|--------x-----------x-------|--------------------x-------|--------x-----------x--3----|
----------------------------|--5-----------3--------0h---|--------------0-------------|--------0-----------3-------|--------0-----------0-------|-----0-----0-----0----------|-----0-----0-----0-----0----|----------------------------|----------------------------|--------------2-------------|--3-----------3-------------|--3-------------------------|
--2--------------------5L---|--------------3--3--1-------|--------2-------------------|-----0-----0--0-------------|----------------------------|-----------------------0L---|
--5-----------3-----------------------5-----------------------5s-7L----------7--|--------------------------0-----------------------0-----------------------------|--------------------------------------------------------------------------------|--------------------------------------------------------------------------------|--------------------------------------------------------------------------------|--0--------------------------------------------------------------0--------------|
^---------3-------------|--0-----------0--0-----0----|-----------------------|--------1-----1--1-----1----|-----------------------|-----0-----0--0-------------|-----------------------|--------------------x-------|-----------------------|--3-----------3-----x-------|-----------------------|--------------------x-------|
--------0-----------0-----------0-----------0-------|--------1-----------3-----------1--------------3----|--------0-----------0-----------0-------------------|--------------x-----------------------x-------------|--3-----------x-----------3-----------x-------------|--------------x-----------------------x-------------|
^--0-----------0--0-----2----|-----2-----2-----2h-3--3----|--1-----1-----1--1-----1----|-----1-----1-----1L-1-------|-----2-----2--2--------2----|-----2-----2-----2L-2-------|--------------------x-------|--0-----x-----0-------------|--0-----------0-----x-------|--------x-------------------|--------------------x-------|--------x-------------------|
----------------------------|----------------------------|----------------------------|--0h-1--0--------0--0--1----|--------0-----------0-------|-----------2----------------|-----0-----0-----0-----0----|-----2--------------2-------|--------------2-------------|--3-----------3-------------|--3-------------------------|----------------------------|
--------0-------------------|-----------------2h-3--3----|--3--------3-----1h-0--0----|-----------3----------------|----------------------------|--------0-------------------|-----2----------------------|-----2--------0-------------|--0-----------0-------------|--3-------------------------|----------------------------|----------------------------|
^----------------------------|----------------------------|-------|----------------------------|--1-----0--------0h-1-------|--1----|--------0-----------0-------|-----------2----------------|--0----|-----0-----0-----0-----0----|-----2----------------------|--2----|--------------2-------------|--3-----------3-------------|--0----|--3-------------------------|----------------------------|-------|
^--2-------------------------|----------------------------|--1-------------------------|--------------0--3h-0-------|--2-----------------x--x----|--------0-------------------|--0-----------------x--x----|-----0-----0----------------|--------------------x--x----|----------------------------|--------------------x--x----|--3-----------3-------------|
-----0----------------------|--------0-------------------|--3--------3--3--------3----|--3-----1--3-----3-----3----|--------0-----0-----0-------|-----0----------------------|-----2-----------2----------|--------------------2-------|--3--------3----------------|--0-----------0-------------|----------------------------|----------------------------|
-----0--0-------------------|----------------------------|--3--------3-----1-----3----|-----------0--0--3h-3-------|-----0----------------------|--------0-----------0-------|--------------0-----0-------|-----0--------0-------------|--3-------------------------|----------------------------|----------------------------|--3-------------------------|
-----0--0-------------------|-----3-----2----------------|--3--------3-----------3----|--3--3-----3-----3-----3----|--------0-----0-----0-------|-----0----------------------|-----2-----------2----------|--------------------2-------|--3--------3----------------|--0-----------0-------------|----------------------------|----------------------------|
^--------0-------------------|----------------------------|--3--------3-----1-----0----|--------------0-------------|-----0--------------x-------|--------0-------------------|--------------0-----x-------|-----2-----2--2-------------|--3-----------------x-------|----------------------------|----------------------------|--0-----------0-------------|
^----------------------------------------------------|--0h----1-----------1h-0----------------------------|--0-----------------------2-------------------------|--2-------------------------------------------------|--0-----------------------0-------------------------|----------------------------------------------------|
^--------0-------------------|--3--------3-----1h-0--0----|-----------------------0----|-----0-----------------0----|-----------------------2----|--2-----------2--------3----|
^ ^ ^--------------------------------------------3h-2----|--x-----0-----x-----0-----x-----3-----x-------------|--x-----0-----x-----0-----x-----2-----x-------------|--x-----0-----x-----0-----x-----0-----x-------------|--x-----2-----x-----2-----x-----------x-------------|--x-----3-----x-----3-----x-----2-----x-----0-------|
^--3-----------0--0-----0----|----------------------------|--------0-------------------|--------------1--------1----|-----0-----0--------0-------|--------0-----0-------------|----------------------------|-----2-----2--2-------------|----------------------------|--0-----------0-------------|--------------0-------------|----------------------------|
^--2-----2--0-----2h-3--1----|-----1-----1-----3h-1--1h---|--3--------------------0----|-----0-----0----------------|--2-------------------------|----------------------------|--0-----------0-------------|--x-----------x-------------|----------------------------|--x-----------x-------------|-----------------------3----|--x-----3-----x-------------|
--0--------------------3L---|--3-------------------------|--------------3h-1----------|-----4-----3-----1-----1L---|--------0-----------0-------|--------0-----------0-------|-----2-----2----------------|----------------------------|--3-----------3--------3L---|--3-----------3--------3L---|----------------------------|----------------------------|
----------------------------------------------------|--1-----3h-1--0-----------0-----0-----------3L------|--------------------------------------0-----4L------|----------------------------------------------------|--3-------------------------------------------------|--------3-----------------3-----------------3L------|
^ ^ ^ ^-----0-----------------0----|--0-------|--2-------|----------------------------|--3--1----------------------|--1--1----|--1--4----|--4--3--------0-------------|--4-------------------------|--0--2----|--2--5----|--------0-----------0-------|----------------------------|-----2----|--0--4----|-----0-----0-----0-----0----|----------------------------|--0--0----|-----5----|----------------------------|--3--0----------------------|----------|----------|--3-----------3-------------|
--5-----------3--------0h---|--------0-----------3-------|-----0-----0-----0----------|----------------------------|--------------2-------------|--3-------------------------|
--2-----------------------------------------------------------------------------|--------------------------------------------------3-----------3-----------1-----|--------------------------2-----------------------------------------------------|--------------0-----------------------0-----------0-----------------------------|--------------------------------------------------------------------------------|--------------------------------------------------------------------------------|
------3s-5L------------|-----------------------|-----------------------|-----------------------|-----------------------|---------0L------------|
--5-----------3-----------------------5-----------------------5-----------5s-7--|--------------------------0-----------------------0-----------------------------|--------------------------------------------------------------------------------|--------------------------------------------------------------------------------|--------------------------------------------------------------------------------|--0--------------------------------------------------------------------------0--|
^---------3-------------|--0-----------0--0-----0----|-----------------------|--------1-----1--1-----1----|-----------------------|-----0-----0--0-----0-------|-----------------------|----------------------------|-----------------------|--3-----------3-------------|-----------------------|----------------------------|
--------------0-----------------------------0-------|--------------------3-----------1--------------3----|--------0-----------------------------0-------------|----------------------------------------------------|--3-----------------------3-------------------------|----------------------------------------------------|
^--0-----------0--0-----2----|-----2-----2-----0----------|--1-----1-----1--1-----1----|-----1-----1-----1-----3----|-----2-----2--2--------2----|--------------2--------4----|--------------------x-------|--0-----x-----------x-------|--0-----------0-----x-------|--------x-----------x-------|--------------------x-------|--------x-----------x--3----|
----------------------------|--5-----------3--------0h---|--------------0-------------|--------0-----------3-------|--------0-----------0-------|-----0-----0-----0----------|-----0-----0-----0-----0----|----------------------------|----------------------------|--------------2-------------|--3-----------3-------------|--3-------------------------|
--2--------------------5L---|--------------3--3--1-------|--------2-------------------|-----0-----0--0-------------|----------------------------|-----------------------0L---|
--5-----------3-----------------------5-----------------------5s-7L----------7--|--------------------------0-----------------------0-----------------------------|--------------------------------------------------------------------------------|--------------------------------------------------------------------------------|--------------------------------------------------------------------------------|--0--------------------------------------------------------------0--------------|
^---------3-------------|--0-----------0--0-----0----|-----------------------|--------1-----1--1-----1----|-----------------------|-----0-----0--0-------------|-----------------------|--------------------x-------|-----------------------|--3-----------3-----x-------|-----------------------|--------------------x-------|
--------0-----------0-----------0-----------0-------|--------1-----------3-----------1--------------3----|--------0-----------0-----------0-------------------|--------------x-----------------------x-------------|--3-----------x-----------3-----------x-------------|--------------x-----------------------x-------------|
^ ^--0-----------0--0-----2----|-----2-----2-----2h-3--3L---|--3L---|--3----||--1-----1-----1--1-----1----|-----1-----1-----1L-1--0L---|--0L---|--0----||-----2-----2--2--------2----|-----2-----2-----2L-2--0L---|--0L---|--0----||--------------------x-------|--0-----x-----0--------0L---|--0L---|--0----||--0-----------0-----x-------|--------x--------------2L---|--2L---|--2----||--------------------x-------|--------x--------------3L---|--3L---|--3----||
If you liked my arrangement please rate it, don't be shy to leave a comment also. If you like my work you can also help me by donating to the following link http://tinyurl.com/ckajzfx Donations help me a great deal. As single guitar finger picking becomes more popular, most arrangements are accessible only through paying membership or simply sold. I think music should be free, that's why I share my work with you on many different sites. However for those of financial means who appreciate my work, a little donation once in a while goes a long way to encourage people like me to maintain that state of mind and continue working on new arrangements to share with everyone for free. Thanks to who donated thus far. Title: More Than Words SubTitle: (Lewt's Arrangement) Artist: Extreme Words: Garry Cherone Music: Nuno Bettencourt & Garry Cherone Tabber: Lewt Tempo = 91 Track 1 Legend L - tied note x - dead note h - hammer on/pull off b - bend s - slide ~ - vibrato g - ghost note > - accentuated note t - trill M - palm mute . - staccato P - popping (bass) S - slapping (bass) + - tapping W - wide vibrato < - fade in w - whammy bar = - tremolo picking v - brush up ^ - brush down V - pick stroke up n - pick stroke down
Tap to rate this tab
 
# A B C D E F G H I J K L M N O P Q R S T U V W X Y Z