Eyehategod - White Nigger tab

Eyehategod - White Nigger
by: koxaka - tothmarton89 at gmail dot com
tuning: C

I couldn't find too much EHG tabs on net, so i tought i make white nigger's. it's my 
tab, and i play the guitar just for a half year, so sorry for the mistakes! (and my bad 
:))

-------------------------------------------|-------------------------------------------|-------------------------------------------|-------------------------------------------|--7---7---7----5---5---5----7---7---7----5-|--5---5---5----3---3---3----5---5---5----3-|
-----------------------------------------------------------|-----------------------------------------------------------|-----------------------------------------------------------|-----------------------------------------------------------|---3h5-3----------3-5----------3h5-3----------3-5----------|---------5--5--55-----3--3--33-------5--5--55-----3--3--33-|
-----------------------------------------------------------|-----------------------------------------------------------|-----------------------------------------------------------|-----------------------------------------------------------|---3h5-3----------3-5----------3h5-3----------3-5----------|---------5--5--55-----3--3--33-------5--5--55-----3--3--33-|
-----------------------------------------------------|-----------------------------------------------------|-----------------------------------------------------|-----------------------------------------------------|--2----5----7-7----8-7---8-7-5-----------------------|--0----3----5-5----6-5---6-5-3-----------------------|
x4-----------------------------------------------------|-----------------------------------------------------|-----------------------------------------------------|-----------------------------------------------------|--2----5----7-7---(5)(5)(5)(5)-7-5--(5)(5)(5)(5)-7-5-|--0----3----5-5---(5)(5)(5)(5)-5-3--(5)(5)(5)(5)-5-3-|
------------------------------------------------------|------------------------------------------------------|------------------------------------------------------|------------------------------------------------------|--7--2-2--5--2-2--5-5-7-5--7--2-2--5--2-2--5-5-7-5----|--5--0-0--3--0-0--3-3-5-3--5--0-0--3--0-0--3-3-5-3----|
-------------------------------------|-------------------------------------|-------------------------------------|-------------------------------------| x4--7-7-7-2-2-2-5-5-5-2-2-2--5-5-7-5---|--5-5-5-0-0-0-3-3-3-0-0-0--3-3-5-3---|
-----------------------------------------------------------------|-----------------------------------------------------------------|-----------------------------------------------------------------|-----------------------------------------------------------------| x2--7---5---2-7---5---2-5h7-7-7-5--7---5---2-7---5---2-5s12--------|--5---3---0-5---3---0-3h5-5-5-3--5---3---0-5---3---0-3s14--------|
-----------------------------------------------------------------|-----------------------------------------------------------------|-----------------------------------------------------------------|-----------------------------------------------------------------| x4--7---5---2-7---5---2-5h7-7-7-5----------------------------------|--5---3---0-5---3---0-3h5-5-5-3----------------------------------|
-----------------------------------------------------------------|-----------------------------------------------------------------|-----------------------------------------------------------------|-----------------------------------------------------------------|--7---5---2-7---5---2-5h7-7-7-5--7---5---2-7---5---2-5s12--------|--5---3---0-5---3---0-3h5-5-5-3--5---3---0-5---3---0-3s14--------|
-----------------------------------------------------------------|-----------------------------------------------------------------|-----------------------------------------------------------------|-----------------------------------------------------------------|--7---5---2-7---5---2-5h7-7-7-5--7---5---2-7---5---2-5-6-7-7-6-5-|--5---3---0-5---3---0-3h5-5-5-3--5---3---0-5---3---0-3-4-5-5-4-3-|
Tap to rate this tab
 
# A B C D E F G H I J K L M N O P Q R S T U V W X Y Z