Eyes Of Noctum – Declaration Of War tab

Eyes Of Noctum
Declaration Of War
 d-a-d-g-b-e
please provide us with a link to the official website of this band in your tab 
below and click on Submit Your Tab button again. 

http://www.eyesofnoctumofficial.com/
*=palm mute
)=bend
(=unbend

tabbed by andherembrace

-----------------------------------------------------------------|-----------------------------------------------------------------|-----------------------------------------------------------------|-----------------------------------------------------------------|-*-*-1-*-*-1-*-*-1-*-*-*-3-4-1-3-*-*-1-*-*-1-*-1---*-***-***-***-|-0-0-1-0-0-1-0-0-1-0-0-0-3-4-1-3-0-0-1-0-0-1-0-1---0-000-000-000-|
-----------------------------------------------------------------|-----------------------------------------------------------------|-----------------------------------------------------------------|-----------------------------------------------------------------|-*-*-1-*-*-1-*-*-1-*-*-*-3-4-1-3-*-*-1-*-*-1-*-1---*-***-***-***-|-0-0-1-0-0-1-0-0-1-0-0-0-3-4-1-3-0-0-1-0-0-1-0-1---0-000-000-000-|
-----------------------------------------------------------------|-----------------------------------------------------------------|-----------------------------------------------------------------|-----------------------------------------------------------------|-*-*-1-*-*-1-*-*-1-*-*-*-3-4-1-3-*-*-1-*-*-1-*-1---*-***-***-***-|-0-0-1-0-0-1-0-0-1-0-0-0-3-4-1-3-0-0-1-0-0-1-0-1---0-000-000-000-|
-----------------------------------------------------------------|-----------------------------------------------------------------|-----------------------------------------------------------------|-----------------------------------------------------------------|-*-*-1-*-*-1-*-*-1-*-*-*-3-4-1-3-*-*-1-*-*-1-*-1---*-***-***-***-|-0-0-1-0-0-1-0-0-1-0-0-0-3-4-1-3-0-0-1-0-0-1-0-1---0-000-000-000-|
0:26---------------------------------------------------------------|---------------------------------------------------------------|---------------------------------------------------------------|-*-*--*--*-*----*-*--*--*-*----*-*--*--*-*----*-*--*--*-*------|-0-0--0--0-0----0-0--0--0-0----0-0--0--0-0----0-0--0--0-0--/\--|-0-0--0--0-0----0-0--0--0-0----0-0--0--0-0----0-0--0--0-0--/\--|
0:38--------------------------------------------------------------|--------------------------------------------------------------|--------------------------------------------------------------|---------------------------------7-----5-------8-----7--------|-*-*-8-*-7-*-*10-*-8-*-*-3-*-3-*-8--*--7--*-*-10--*--8---*-*--|-0-0-5-0-5-0-0-7-0-7-0-0-3-0-3-0-5--0--5--0-0--7--0--7---0-0--|
--------------------------------------------------------------|--------------------------------------------------------------|--------------------------------------------------------------|---------------------------------7-----5-------8-----7--------|-*-*-8-*-7-*-*10-*-8-*-*-3-*-3-*-8--*--7--*-*-10--*--8---*-*--|-0-0-5-0-5-0-0-7-0-7-0-0-3-0-3-0-5--0--5--0-0--7--0--7---0-0--|
--------------------------------------------------------------|--------------------------------------------------------------|--------------------------------------------------------------|---------------------------------7-----5-------8-----7--------|-*-*-8-*-7-*-*10-*-8-*-*-3-*-3-*-8--*--7--*-*-10--*--8---*-*--|-0-0-5-0-5-0-0-7-0-7-0-0-3-0-3-0-5--0--5--0-0--7--0--7---0-0--|
--------------------------------------------------------------|--------------------------------------------------------------|--------------------------------------------------------------|---------------------------------7-----5-------8-----7--------|-*-*-8-*-7-*-*10-*-8-*-*-3-*-3-*-8--*--7--*-*-10--*--8---*-*--|-0-0-5-0-5-0-0-7-0-7-0-0-3-0-3-0-5--0--5--0-0--7--0--7---0-0--|
1:01-----------------------------------------------------------|-----------------------------------------------------------|-----------------------------------------------------------|-----------------------------------------------------------|-1-*-*-3-*-1-*-*-1-*-*-*-1-*-*-*-1-*-*-3-*-1-*-*-3-3-3-3-1-|-1-0-0-3-0-1-0-0-1-0-0-0-1-0-0-0-1-0-0-3-0-1-0-0-3-3-3-3-1-|
-------------------------------------------------------------|-------------------------------------------------------------|-------------------------------------------------------------|-------------------------------------------------------------|-1-*-*-3-*-1-*-*-1-*-*-*-1-*-*-*-1-*-*-3-*-1-*-*-------------|-1-0-0-3-0-1-0-0-1-0-0-0-1-0-0-0-1-0-0-3-0-1-0-0-3-6-5-1-3~~-|
-----------------------------------------------------------|-----------------------------------------------------------|-----------------------------------------------------------|-----------------------------------------------------------|-1-*-*-3-*-1-*-*-1-*-*-*-1-*-*-*-1-*-*-3-*-1-*-*-3-3-3-3-1-|-1-0-0-3-0-1-0-0-1-0-0-0-1-0-0-0-1-0-0-3-0-1-0-0-3-3-3-3-1-|
-------------------------------------------------------------|-------------------------------------------------------------|-------------------------------------------------------------|-------------------------------------------------------------|-1-*-*-3-*-1-*-*-1-*-*-*-1-*-*-*-1-*-*-3-*-1-*-*-------------|-1-0-0-3-0-1-0-0-1-0-0-0-1-0-0-0-1-0-0-3-0-1-0-0-3-6-5-1-3~~-|
1:25---------------------------------------------------------------|---------------------------------------------------------------|---------5-5---------------------------5-5---------------------|-*---*-*-3-3-*---*----*---*----*---*-*-3-3-*-----------7-ph~---|-0-1-0-0-3-3-0-1-0----0-1-0----0-1-0-0-3-3-0-/8-7-8-10---8-----|-0-1-0-0-3-3-0-1-0----0-1-0----0-1-0-0-3-3-0-------------------|
harmony left---------------------------------------------------------------|---------------------------------------------------------------|---------------------------------------------------------------|----------------------------------------------------2-3-ph-----|---------------------------------------------/5-3-5-----3------|---------------------------------------------------------------|
---------------------------------------------------------------|---------------------------------------------------------------|---------5-5---------------------------5-5---------------------|-----*-*-3-3-*---*----*---*----*---*-*-3-3-*-----------7-ph~---|---1-0-0-3-3-0-1-0----0-1-0----0-1-0-0-3-3-0-/8-7-8-10---8-----|---1-0-0-3-3-0-1-0----0-1-0----0-1-0-0-3-3-0-------------------|
harmony left---------------------------------------------------------------|---------------------------------------------------------------|---------------------------------------------------------------|----------------------------------------------------2-3-ph-----|---------------------------------------------/5-3-5-----3------|---------------------------------------------------------------|
1:37--------------------------------------------------------------|--------------------------------------------------------------|--------------------------------------------------------------|---------------------------------7-----5-------8-----7--------|-*-*-8-*-7-*-*10-*-8-*-*-3-*-3-*-8--*--7--*-*-10--*--8---*-*--|-0-0-5-0-5-0-0-7-0-7-0-0-3-0-3-0-5--0--5--0-0--7--0--7---0-0--|
--------------------------------------------------------------|--------------------------------------------------------------|--------------------------------------------------------------|---------------------------------7-----5-------8-----7--------|-*-*-8-*-7-*-*10-*-8-*-*-3-*-3-*-8--*--7--*-*-10--*--8---*-*--|-0-0-5-0-5-0-0-7-0-7-0-0-3-0-3-0-5--0--5--0-0--7--0--7---0-0--|
--------------------------------------------------------------|--------------------------------------------------------------|--------------------------------------------------------------|---------------------------------7-----5-------8-----7--------|-*-*-8-*-7-*-*10-*-8-*-*-3-*-3-*-8--*--7--*-*-10--*--8---*-*--|-0-0-5-0-5-0-0-7-0-7-0-0-3-0-3-0-5--0--5--0-0--7--0--7---0-0--|
--------------------------------------------------------------|--------------------------------------------------------------|--------------------------------------------------------------|---------------------------------7-----5-------8-----7--------|-*-*-8-*-7-*-*10-*-8-*-*-3-*-3-*-8--*--7--*-*-10--*--8---*-*--|-0-0-5-0-5-0-0-7-0-7-0-0-3-0-3-0-5--0--5--0-0--7--0--7---0-0--|
2:01WITH WAHsolo )( )( ) )( )----6------7-5-----6------6---6---7---\--|-/5------------8-7----5-5-------5--------|-----------------------------------------|-----------------------------------------|-----------------------------------------|-----------------------------------------|
2:07
3-0-0-0-7-7-8-8-5-0-0-0-8-8-10-10-7-0-0-0-10-10-12-12-9-0-0-0-14-14-15-15|-------------------------------------------------------------------------|-------------------------------------------------------------------------|-------------------------------------------------------------------------|-------------------------------------------------------------------------|-------------------------------------------------------------------------|
2:10
) 3-0-0-0-7-7-8-8-5-0-0-0-8-8-10-10/16----15~~~----------|-------------------------------------------------------|-------------------------------------------------------|-------------------------------------------------------|-------------------------------------------------------|-------------------------------------------------------|
2:12-----------------------------------------------------------------------|-----------------------------------------------------------------------|------------------------------------------11--------------11-13-14-----|---------9---------------9-11-12--11-12-14--14-12-11-12-14-------------|-9-11-12---12-11-9-11-12-----------------------------------------------|-----------------------------------------------------------------------|
2:16-------------------------------------------14---------------14-15-17--|---------14--------------14-15-17--14-15-17--17-15-14-15-17-----------|-13-14-16--16-14-13-14-16---------------------------------------------|----------------------------------------------------------------------|----------------------------------------------------------------------|----------------------------------------------------------------------|
2:17 T ^ T ^ T ^ T ^ T ^ T ^ T ^ T ^19-17-14-19-17-14-21-17-14-21-17-14-22-17-14-22-17-14-21-17-14-21-17-14-|------------------------------------------------------------------------|------------------------------------------------------------------------|------------------------------------------------------------------------|------------------------------------------------------------------------|------------------------------------------------------------------------|
2:19
---------17-21-22-21--------------17-21-22-21------------|-------19-----------19----------19-----------19----------|-----18---------------18------18---------------18--------|---19-------------------19--19-------------------19------|-21-----------------------21-----------------------------|---------------------------------------------------------|
2:22
-15-12----------------12-15/18-15---------------15-18/-|-------14-11-14-11-14-------------17-14-17-14-17-------|-------------------------------------------------------|-------------------------------------------------------|-------------------------------------------------------|-------------------------------------------------------|
-20-17--------------17-20/23--------|------19-16-19-16-19----------------|------------------------------------|------------------------------------|------------------------------------|------------------------------------|
2:26---------------------------------------------------------------|---------------------------------------------------------------|---------5-5---------------------------5-5---------------------|-----*-*-3-3-*---*----*---*----*---*-*-3-3-*-----------7-ph~---|---1-0-0-3-3-0-1-0----0-1-0----0-1-0-0-3-3-0-/8-7-8-10---8-----|---1-0-0-3-3-0-1-0----0-1-0----0-1-0-0-3-3-0-------------------|
harmony left---------------------------------------------------------------|---------------------------------------------------------------|---------------------------------------------------------------|----------------------------------------------------2-3-ph-----|---------------------------------------------/5-3-5-----3------|---------------------------------------------------------------|
2:32--------------------------------------------------------------|--------------------------------------------------------------|--------------------------------------------------------------|---------------------------------7-----5-------8-----7--------|-*-*-8-*-7-*-*10-*-8-*-*-3-*-3-*-8--*--7--*-*-10--*--8---*-*--|-0-0-5-0-5-0-0-7-0-7-0-0-3-0-3-0-5--0--5--0-0--7--0--7---0-0--|
--------------------------------------------------------------|--------------------------------------------------------------|--------------------------------------------------------------|---------------------------------7-----5-------8-----7--------|-*-*-8-*-7-*-*10-*-8-*-*-3-*-3-*-8--*--7--*-*-10--*--8---*-*--|-0-0-5-0-5-0-0-7-0-7-0-0-3-0-3-0-5--0--5--0-0--7--0--7---0-0--|
--------------------------------------------------------------|--------------------------------------------------------------|--------------------------------------------------------------|---------------------------------7-----5-------8-----7--------|-*-*-8-*-7-*-*10-*-8-*-*-3-*-3-*-8--*--7--*-*-10--*--8---*-*--|-0-0-5-0-5-0-0-7-0-7-0-0-3-0-3-0-5--0--5--0-0--7--0--7---0-0--|
--------------------------------------------------------------|--------------------------------------------------------------|--------------------------------------------------------------|---------------------------------7-----5-------5-----4--------|-*-*-8-*-7-*-*10-*-8-*-*-3-*-3-*-8-----7-------7-----5--------|-0-0-5-0-5-0-0-7-0-7-0-0-3-0-3-0-5-----5-------5-----3--------|
Please rate this tab:
x1.0