Eyes Set To Kill – A Sketch In Black And White tab

Song: A Sketch In Black & White
Artist: Eyes Set To Kill
Album: Reach

It sounds pretty good to me. Go easy on me if anything's wrong lol.

Drop D Tuning (DADGBE)

Guitar 1:


Intro/Interlude

------------------------------------------------------------------|------------------------------------------------------------------|---------33-333---------------------------33-333------------------|-00-000--33-333--55-555--7-5-3-6--00-000--33-333--55-555--7-5-3-2-|-00-000--11-111--55-555--7-5-3-6--00-000--11-111--55-555--7-5-3-2-|-00-000----------55-555--7-5-3-6--00-000----------55-555--7-5-3-2-|
---------------------------------|---------------------------------|---------33-333------------------|-00-000--33-333--55-555--7-5-3-2-|-00-000--11-111--55-555--7-5-3-2-|-00-000----------55-555--7-5-3-2-| . . . .
---------------------------------|---------------------------------|---------33-333------------------|-00-000--33-333--55-555--1-1-1-1-|-00-000--11-111--55-555--1-1-1-1-|-00-000----------55-555--1-1-1-1-|
Verse:
------------|-----3~-----|-----3~-----|-0~--1~--5~-| x2-0~------5~-|-0~------5~-|
-------------------------------|-------------------------------|----------------3-3333---------|-0-0000-0-0000--3-3333--5-5555-|-0-0000-0-0000--1-1111--5-5555-|-0-0000-0-0000----------5-5555-|
Chorus:
-------------------------------|-------------------------------|----------------3-3333---------| x4-0-0000--0-0000-3-3333--7-7777-|-0-0000--0-0000-1-1111--7-7777-|-0-0000--0-0000---------7-7777-|
(Breakdown kind of part)
-----------------------------------|-----------------------------------|-------------------3-3333----------|-0-0-0-0--0-0-0-0--3-3333--555-7-5-|-0-0-0-0--0-0-0-0--1-1111--555-7-5-|-0-0-0-0--0-0-0-0----------555-7-5-|
-----------------------------------|-----------------------------------|-------------------3-3333----------|-0-0-0-0--0-0-0-0--3-3333--7-5-3-2-|-0-0-0-0--0-0-0-0--1-1111--7-5-3-2-|-0-0-0-0--0-0-0-0----------7-5-3-2-| . . . .
~Intro/Interlude~ Chords during solo:
---------------- -----------------|-----3~--------- -----3~----------|-----3~--------- -----3~----------|-0~--1~--5~--7~- x3 -0~--1~--5~--2~--|-0~------5~--7~- -0~------5~--2~--|-0~------5~--7~- -0~------5~--2~--|
------------|-----3~-----|-----3~-----|-0~--1~--7~-| x2-0~------7~-|-0~------7~-|
Chorus comes back in:
-------------0---0---0--
~Intro/Interlude~ ~Chorus~ End on: ---- ---- ---- -0~- -0~- -0~- Guitar 2: Intro/Interlude
------------------------------------|------------------------------------|---------33-333----------14-12-10-9-|-00-000--33-333--55-555-------------|-00-000--11-111--55-555--12-10--8-7-|-00-000----------55-555-------------|
-------------------------------------|-------------------------------------|---------33-333----------14-15-17-19-|-00-000--33-333--55-555--------------|-00-000--11-111--55-555--12-13-15-17-|-00-000----------55-555--------------|
---------------------------------|---------------------------------|---------33-333------------------|-00-000--33-333--55-555--7-5-3-2-|-00-000--11-111--55-555--7-5-3-2-|-00-000----------55-555--7-5-3-2-| . . . .
---------------------------------|---------------------------------|---------33-333------------------|-00-000--33-333--55-555--1-1-1-1-|-00-000--11-111--55-555--1-1-1-1-|-00-000----------55-555--1-1-1-1-|
Verse:
--------------------------------|-66-666-666-666-555-555-555-555-|-99-999-999-999-777-777-999-999-| x4-00-000-000-000-000-000-000-000-|--------------------------------|--------------------------------|
~Intro/Interlude~ Chorus (this part's kinda hard to hear but it sounds pretty close):
---------------------------------------------------------------------------------|---------------------------------------------------------------------------------|-77-777-77-777--1212-121212--14-12-10-9--77-777-77-777--1212-121212--14-15-17-19-|---------------------------------------------------------------------------------|-55-555-55-555--1010-101010--12-10--8-7--55-555-55-555--1010-101010--12-13-15-17-|---------------------------------------------------------------------------------|
(I see the sketch in black and white...)-----------------------------------------------------|-----------------------------------------------------|-77-777--141414--121212--101010--101010--999--121212-|-----------------------------------------------------|-55-555--121212--101010---8-8-8---8-8-8--777--101010-|-----------------------------------------------------|
--------------------------------------------------|--------------------------------------------------|-77-777--141414--121212--101010--101010--999--999-|--------------------------------------------------|-55-555--121212--101010---8-8-8---8-8-8--777--777-|--------------------------------------------------|
(Breakdown kind of part)
---------------------------------------|---------------------------------------|-77-9-7--7-14-12-10--10-101010-999-9-9-|---------------------------------------|-55-7-5--5-12-10--8---8--8-8-8-777-7-7-|---------------------------------------|
---------------------------------------|---------------------------------------|-77-9-7--7-14-12-10--10-101010---------|-------------------------------7-5-3-2-|-55-7-5--5-12-10--8---8--8-8-8-7-5-3-2-|-------------------------------7-5-3-2-| . . . .
~Intro/Interlude~ ~Solo with screaming (sorry I can't figure that part out)~ Chorus comes back in:
--------------------------------|-66-666-666-666-555-555-555-555-|-99-999-999-999-777-777-999-999-| x2-00-000-000-000-000-000-000-000-|--------------------------------|--------------------------------|
~Intro/Interlude~ Last part is the same as the other chorus but the notes aren't as seperated. End on: ---- ---- ---- -0~- -0~- -0~- This is one of my first tabs really. If anything email me at ryot4ever@aim.com
Please rate this tab:
x1.0