F Seitz – Concerto No 3 3rd Movement tab

Here is an Awesome song to play if you are doing a (clasical)guitar solo. Good 
luck with it. If you have any questions, or suggestions, please leave a comment.

           GuitarGuy918


E||-----------------|--3----------------|--------------------|B||--------------3--|--------0--3----3--|--1-----/5----------|G||-----------------|-------------------|------------2----0--|D||-----------------|-------------------|--------------------|A||-----------------|-------------------|--------------------|E||-----------------|-------------------|--------------------|
-----------0--------|-----------------|--3----------------|--------------------|--------1-----3--1--|--0--------L--3--|--------0--3----3--|--1-----/5----------|-----2--------------|-----------------|-------------------|------------2----0--|--4-----------------|-----------------|-------------------|--------------------|--------------------|-----------------|-------------------|--------------------|--------------------|-----------------|-------------------|--------------------|
-----------0--------|-----------------|-------5--5--3--0--|--2--------------|--------1-----3-----|-----------0--0--|-------------------|-----------3--0--|-----2--------------|--0--------------|--2----------------|-----------------|--4--------------4--|-----------------|-------------------|-----------------|--------------------|-----------------|-------------------|-----------------|--------------------|-----------------|-------------------|-----------------|
-----0--2--3--2--0--|--2-----------------|-------5--5--3--0--|--------------------|--------------------|-------------------|--2--2--2--2--2--2--|--2--2--2--2--2--2--|--2----------------|--------------------|--0--0--2--4--2--0--|-------------------|--------------------|--------------------|-------------------|--------------------|--------------------|-------------------|
--2------L--0-----|-------------------|------------------|--------------------|---------------3--|--2----0-----------|---------------3--|--------3--------3--|------------------|----------2--0-----|------------------|--------------------|------------------|----------------2--|--0------L--------|--0--------0--------|------------------|-------------------|------------------|--------------------|------------------|-------------------|------------------|--------------------|
-------------------|--3----------------|--------------------|----------------3--|--------0--3----3--|--1-----/5----------|-------------------|-------------------|------------2----0--|--0----------------|-------------------|--------------------|-------------------|-------------------|--------------------|-------------------|-------------------|--------------------|
-----------0--------|-----------------|--3-------------0--|--5-----0--5----3--|--------1-----3--1--|--0------L----3--|--------0--3-------|-------------------|-----2--------------|-----------------|-------------------|-------------------|--4-----------------|-----------------|-------------------|-------------------|--------------------|-----------------|-------------------|-------------------|--------------------|-----------------|-------------------|-------------------|
--2--0--------------|------------------|-------------------|-------0--L--------|--------3--1--0-----|------------------|-------------0--0--|--0----------3--1--|-----------------2--|--0------L--------|-------------------|-------------------|--------------------|------------------|-------------------|-------------------|--------------------|------------------|-------------------|-------------------|--------------------|------------------|-------------------|-------------------|
------------------|-------------------|------------------|-----------0--------|------------------|-------------------|------------0--0--|--0--1--3-----3--1--|--4----0-------0--|-------0--2--0-----|--0---------------|--------------------|----------2-------|--4-------------4--|---------2--------|--------------------|------------------|-------------------|------------------|--------------------|------------------|-------------------|------------------|--------------------|
------------------|------------------|-----------------|-------0--0--------|--0---------------|-------4--4----2--|--0--------0--0--|--0----------3--1--|-------0-------0--|------------------|-----------------|-------------------|----------2-------|--4---------------|-----------------|-------------------|------------------|------------------|-----------------|-------------------|------------------|------------------|-----------------|-------------------|
------------------|-------------------|------------------|-----------0--------|--0---------------|-------------------|------------0--0--|--0--1--3-----3--1--|-------0-------0--|-------0--2--0-----|--0---------------|--------------------|----------2-------|--4-------------4--|---------2--------|--------------------|------------------|-------------------|------------------|--------------------|------------------|-------------------|------------------|--------------------|
------------------|-----------0--------|-----------------|--------0--3--2--0--|--0---------------|--------1-----3--1--|--0------0----0--|-----1--------------|-------0-------0--|-----2--------------|-----------------|--2-----------------|----------2-------|--4-----------------|-----------------|--------------------|------------------|--------------------|-----------------|--------------------|------------------|--------------------|-----------------|--------------------|
-----7--5--3--------|-----0--------------|--------------0-------|--3-----------3--0--|--------3--1--------|------------0------3--|--------------------|--2-----------------|--0-------0-----------|--------------------|--------------2--4--|-----0h-4-------------|--------------------|--------------------|----------------------|--------------------|--------------------|----------------------|
--------------0-------|--7p-5p-3p-0----0-----------|-----------0-----------|------------0------3--|-------------3----3p-0------|---------0---3-3-------|--0-------0-----------|-----------------------0----|-------0------------2--|-----0h-4-------------|-------------------------0--|--0h-4-----------------|----------------------|----------------------------|-----------------------|----------------------|----------------------------|-----------------------|
---------------0-------|---------------0-------|--5p-3p-2p-0----0-----------|--------------------3--|--------------------3--|-------------3----3p-0------|-------------2---------|-------------2---------|-----------------------0----|--4--0h-3h-4-----------|--4--0h-3h-4-----------|-------------------------0--|-----------------------|-----------------------|----------------------------|-----------------------|-----------------------|----------------------------|
-----------0-----------|--------------0-------|--------------0-------|---------1---3------0--|------------0------3--|------------0------3--|-------2-------3-------|--0-------0-----------|--0-------0-----------|--0h-4-----------------|-----0h-4-------------|-----0h-4-------------|-----------------------|----------------------|----------------------|-----------------------|----------------------|----------------------|
--7p-5p-3p-0----0-----------|-----------0-----------|---------------0-------|-------------3----3p-0------|---------0---3-3-------|--------------------3--|-----------------------0----|-------0------------2--|-------------2---------|-------------------------0--|--0h-4-----------------|--4--0h-3h-4-----------|----------------------------|-----------------------|-----------------------|----------------------------|-----------------------|-----------------------|
---------------0-------|--5p-3p-2p-0----0-----------|-----------0-----------|--------------------3--|-------------3----3p-0------|---------1---3------0--|-------------2---------|-----------------------0----|-------2-------3-------|--4--0h-3h-4-----------|-------------------------0--|--0h-4-----------------|-----------------------|----------------------------|-----------------------|-----------------------|----------------------------|-----------------------|
--------------------|-----5--------------|--------------------|-----0-----6--5-----|--------8--5--------|--------5--8--7--5--|--0-----7--------7--|--5-----------7--5--|-----6--------------|--------------------|--------------------|--7-----------------|--------------------|--------------------|--------------------|--------------------|--------------------|--------------------|
-----7--5-----------|--8--5--------------|--------------------|-----------7--5-----|--------7-----------|--5-----------------|--7--------------7--|-----------7--5-----|-----7--4-----------|--------------------|-----------------7--|-----------5--------|--------------------|--------------------|--------------7--5--|--------------------|--------------------|--------------------|
--------------------|-----7--5-----------|--8--5--------------|-----------5--------|-----------8--5-----|--------7-----------|--------------7--5--|--4--------------7--|-----------7--5-----|-----4--7-----------|--------------------|-----------------7--|--5-----------------|--------------------|--------------------|--------------------|--------------------|--------------------|
^ ^ > ^ --5-----------------|-------------2----|-----5--------L--|--L---------------|-----8--------------|-----3-------3----|-----3--------L--|--L------------3--|--------7--4--------|-----2-------2----|-----2--------L--|--L---------------|--------------5-----|--0--0----0--0----|--0--0--------L--|--L---------------|-----------------7--|------------------|-----------------|------------------|--------------------|------------------|-----------------|------------------|
--3----------------|--------0----------|-----------0--------|-----------------|--------0--3----3--|--1----------------|--------1-----3--1--|--0--------L--3--|-------------------|-----------2----0--|-----2--------------|-----------------|-------------------|-------------------|--4-----------------|-----------------|-------------------|-------------------|--------------------|-----------------|-------------------|-------------------|--------------------|-----------------|
--3-------------0--|--5-----0--5----3--|--2--0--------------|--------0--3-------|-------------------|--------3--1--0-----|-------------------|-------------------|-----------------2--|-------------------|-------------------|--------------------|-------------------|-------------------|--------------------|-------------------|-------------------|--------------------|
-----------0--------|--------0-----------|-----------7--5-----|-----0--3-----1-----|-----0-----3--1-----|-----0-----------8--|--0--------------2--|--0--------------2--|--0-----7-----------|--------------------|--------------------|--------------------|--------------------|--------------------|--------------------|--------------------|--------------------|--------------------|
> ^ > ^ ^
--------------------|----------3-------|----------7-------|---------------|-----0--------------|----------0-------|----------0-------|---------------|--7-----0-----------|----------0-------|----------0-------|---------------|-----------2--0-----|----------0-------|----------0-------|---------------|-----------------2--|------------------|------------------|---------------|--------------------|--3---------------|--3---------------|--3------------|
----------------||----------------||----------------||----------------||----------------||--L-------------||
Tablature Legend ---------------- L - tied note x - dead note g - grace note (n) - ghost note > - accentuded note h - hammer on p - pull off S - shift slide s - legato slide / - slide into from below or out of upwards \ - slide into from above or out of downwards ~ - vibrato W - wide vibrato tr - trill TP - tremolo picking T - tapping < - fade in ^ - brush up v - brush down
Please rate this tab:
x1.0