Faith No More - Zombie Eaters tab

#----------------------------------PLEASE NOTE---------------------------------#
#This file is the author's own work and represents their interpretation of the #
#song. You may only use this file for private study, scholarship, or research. #
#------------------------------------------------------------------------------##
From: Juergen Schlierf 
Subject: TAB: Zombie Eaters by Faith no more

                          FAITH NO MORE: ZOMBIE EATERS
                           from the album: REAL THING
                             acoustic guitar-parts

>From Juergen Schlierf 
Transcribed by Pinter Denes 

8x|-------------|-----0-----------2-----------3-----------3---||-------------|---0---0---0---0---0-------0---0---0---0---0-||-------0-----|---------0-----------0-----------0-----------||-----4---4---|-2-----------4---------4-2-----------2-------||---2-------2-|---------------------------------------------||-0-----------|---------------------------------------------|
4x|-------------|-----|-----0-----------2-----------3-----------3---||---------3---|-----|---0---0---0---0---0-------0---0---0---0---0-||---0---0---0-|---0-|---------0-----------0-----------0-----------||-0-----------|-0---|-2-----------4---------4-2-----------2-------||-----2-------|-----|---------------------------------------------||-------------|-----|---------------------------------------------|
4x 8x|-------------|-----|-------------||---------3---|-----|-------------||---0---0---0-|---0-|-------0-----||-0-----------|-0---|-----4---4---||-----2-------|-----|---2-------2-||-------------|-----|-0-----------|
|-7-------7---|-5-------5---|-3-------3---|-3-------||---8---8---8-|---7---7---7-|---5---5---5-|---5---5-||-----9-------|-----7-------|-----4-------|-----4---||-------------|-------------|-------------|---------||-------------|-------------|-------------|---------||-------------|-------------|-------------|---------|
| ||-----0-------|-----2-------|-----3-------|-----3---||---0---0---0-|---0---0-----|---0---0---0-|---0---0-||---------0---|---------0---|---------0---|---------||-2-----------|-4---------4-|-2-----------|-2-------||-------------|-------------|-------------|---------||-------------|-------------|-------------|---------|
4x |-------------|-----||---------3---|-----||---0---0---0-|---0-||-0-----------|-0---||-----2-------|-----||-------------|-----|
|-7-------7---|-5-------5---|-3-------3---|-3-------||---8---8---8-|---7---7---7-|---5---5---5-|---5---5-||-----9-------|-----7-------|-----4-------|-----4---||-------------|-------------|-------------|---------||-------------|-------------|-------------|---------||-------------|-------------|-------------|---------|
| ||-----0-------|-----2-------|-----3-------|-----3---||---0---0---0-|---0---0-----|---0---0---0-|---0---0-||---------0---|---------0---|---------0---|---------||-2-----------|-4---------4-|-2-----------|-2-------||-------------|-------------|-------------|---------||-------------|-------------|-------------|---------|
4x 3x 8x |-------------|-----|-3-3-3-3-3-3-|-3-3-3-2-2-2-|-------------||---------3---|-----|-3-3-3-3-3-3-|-3-3-3-3-3-3-|-------------||---0---0---0-|---0-|-0-0-0-0-0-0-|-0-0-0-0-0-0-|-------0-----||-0-----------|-0---|-------------|-------------|-----4---4---||-----2-------|-----|-------------|-------------|---2-------2-||-------------|-----|-------------|-------------|-0-----------|
3x 7x|-3-3-3-3-3-3-|-3-3-3-2-2-2-|-------------|-------------||-3-3-3-3-3-3-|-3-3-3-3-3-3-|-------------|-------------||-0-0-0-0-0-0-|-0-0-0-0-0-0-|-------0-----|-------0-----||-------------|-------------|-----4---4---|-----4-------||-------------|-------------|---2-------2-|---2--(/)9---||-------------|-------------|-0-----------|-0---------7-|
|-----------|-----------|-----------|-----------||-----------|-----------|-----------|-----------||-----0-----|-----0-----|-----0-----|-----0-----||---9---9---|---9---9---|---9---9---|---9---7---||-7-------7-|-7---------|-7-------7-|-7---------||-----------|---------7-|-----------|---------5-|
|-----------|-----------|-----------------------||-----------|-----------|-----------------------||-----0-----|-----0-----|-----0--------4--------||---7---7---|---7---7---|---7---7---457-754-----||-5-------5-|-5---------|-5-------57-------75---||-----------|---------5-|-----------------------|
|
|---------------7-8-10-8-7--------------| |--------7-8-10------------10-8-7---8---| |---------------------------------------| |---------------------------------------| |---------------------------------------| |---------------------------------------|
|-----------|-----------|-----------|-----------||-----------|-----------|-----------|-----------||-----0-----|-----0-----|-----0-----|-----0-----||---9---9---|---9---9---|---9---9---|---9---9---||-7-------7-|-7---------|-7-------7-|-7---------||-----------|---------7-|-----------|---------5-|
two guitars |-----------|-----------|-----------|-----------------||-----------|-----------|-----------|-----------------||-----0-----|-----0-----|-----0-----|-4---2---0h2p0---||---7---7---|---7---7---|---7---7---|-5---4---2h4p2---||-5-------5-|-5---------|-5-------5-|-----------------||-----------|---------5-|-----------|-----------------|
2x E-|--------------------------|B-|--------------------------|G-|----0-----0-----2-----2---|D-|---4-4---4-4---4-4---3-3--|A-|--2---2-2---2-2---2-3---3-|E-|-0-----3-----2-----1------|
....
E-|----0-----0-----0-----0-----0-----0-------------------------|B-|---0-0---0-0---0-0---0-0---0-0---0-0--------------0---------|G-|--5---5-5---5-5---5-5---5-5---5-5---5-----5-4-2h4---0-------|D-|-7-----6-----5-----4-----3-----3----------3-3-3-----2-------|A-|------------------------------------------------------------|E-|------------------------------------------------------------|
Tap to rate this tab
 
# A B C D E F G H I J K L M N O P Q R S T U V W X Y Z