Faith No More - Naked In Front Of The Computer tab

artist:faith no more
song: naked in front of the computer
album: album of the year
tabbed by: mr_munners@hotmail.com

Intro guitar

----------------------------------------------|----------------------------------------------|----------------------------------------------|----------------------------------------------|----------------------------------------------|--1-1-1-1-2-2-2-2-3-3-3-3-4-4-4-5-------------|
----------------------------------------------|----------------------------------------------|----------------------------------------------|----------------------------------------------|----------------------------------------------|--5-5-5-4-4-4-4-3-3-3-3-2-2-2-0---------------|
---------------------------------------------|---------------------------------------------|---------------------------------------------|---------------------------------------------|---------------------------------------------|--1-1-1-1-2-2-2-2-3-3-3-3-4-4-4-5------------|
band joins in...
--------------------------------------------|--------------------------------------------|--------------------------------------------|---5-5-5-8-8-8-8-8---4-4-4-7-7-7-7-7--------|---5-5-5-8-8-8-8-8---4-4-4-7-7-7-7-7--------|---5-5-5-8-8-8-8-8---4-4-4-7-7-7-7-7--------|
--------------------------------------------|--------------------------------------------|--------------------------------------------|--1-1-1-1-2-2-2-2-3-3-3-3-4-4-4-5-----------|--1-1-1-1-2-2-2-2-3-3-3-3-4-4-4-5-----------|--1-1-1-1-2-2-2-2-3-3-3-3-4-4-4-5-----------|
-------------------------------------------|-------------------------------------------|-------------------------------------------|--5-5-5-4-4-4-4-3-3-3-3-2-2-2-0------------|--5-5-5-4-4-4-4-3-3-3-3-2-2-2-0------------|--5-5-5-4-4-4-4-3-3-3-3-2-2-2-0------------|
--------------------------------------------|--------------------------------------------|--------------------------------------------|--1-1-1-1-2-2-2-2-3-3-3-3-4-4-4-5-----------|--1-1-1-1-2-2-2-2-3-3-3-3-4-4-4-5-----------|--1-1-1-1-2-2-2-2-3-3-3-3-4-4-4-5-----------|
verse 1 repeat 8x "my box is full..."
-----------------------------|-----------------------------|-----------------------------|---1-1----4-4-4--7-8---0-----|---1-1----4-4-4--7-8---0-----|---1-1----4-4-4--7-8---0-----|
chorus "what I say..."
--------|--------|--------|---4-2--|---4-2--|---4-2--|
---------------|---------------|---------------|---6-6--6------|---4-4--4---2--| 4x------------0--|
---------------|---------------|---------------|---8-8--8------|---6-6--6---4--| 4x------------2--|
verse 2 repeat 8x "I bought the thing...."
-----------------------------|-----------------------------|-----------------------------|---1-1----4-4-4--7-8---0-----|---1-1----4-4-4--7-8---0-----|---1-1----4-4-4--7-8---0-----|
chorus "what I say..."
--------|--------|--------|---4-2--|---4-2--|---4-2--|
---------------|---------------|---------------|---6-6--6------|---4-4--4---2--| 4x------------0--|
---------------|---------------|---------------|---8-8--8------|---6-6--6---4--| 4x------------2--|
thenů----------------------------------------------|----------------------------------------------|----------------------------------------------|----------------------------------------------|----------------------------------------------|--1-1-1-1-2-2-2-2-3-3-3-3-4-4-4-5-------------|
----------------------------------------------|----------------------------------------------|----------------------------------------------|----------------------------------------------|----------------------------------------------|--5-5-5-4-4-4-4-3-3-3-3-2-2-2-0---------------|
---------------------------------------------|---------------------------------------------|---------------------------------------------|---------------------------------------------|---------------------------------------------|--1-1-1-1-2-2-2-2-3-3-3-3-4-4-4-5------------|
"i'm sending it back to you..."
--------------------------------------------|--------------------------------------------|--------------------------------------------|---5-5-5-8-8-8-8-8---4-4-4-7-7-7-7-7--------|---5-5-5-8-8-8-8-8---4-4-4-7-7-7-7-7--------|---5-5-5-8-8-8-8-8---4-4-4-7-7-7-7-7--------|
Tap to rate this tab
 
# A B C D E F G H I J K L M N O P Q R S T U V W X Y Z