Falconer – Mindtraveller tab

Falconer- Mindtraveller (tab ver. 1.0)

Transcribed by: Nick Beato (entity@cfl.rr.com)

tune down 1 whole step (DGCFAD- low to high)

this is the version from the full length cd, not the demo
the demo melodies are slightly different

part 1 (first 2 times, gtr 1 alone)

gtr1----------------------------------------------------------------------------------------8h10-----------------------------------------------9------7---7-7------9~~~~-------9------10--9-7----7-9~~~~---7--------7----------------------7--------7-----------10----------------------------------------------------------------------------------------------------------------------------------------------
gtr2-------------------------------------------------------------------------------------------------------------------------------------2------------7------------------2------------7-------9------------2------------7------------------2------------7-------9------------0------------5------------------0------------5-------7-----------------------------------------------------------------------------
gtr1----------------------------------------------fill1 here last time----------------------------------------------V--------------------------9-----------------------------------------------------------7--------7---9---9-10bf r-9~~~~------9-------12--10-9---------------------------------------------10-------10-----------12-11-------------------------------------------------------------------12~~~
gtr2-------------------------------------------------------------------------------------------------------------------------------------2-----------------------------------------------------------------2------------5------------------5------------7--------7/9---------0------------5------2-----3-----5------------5----5-5-5/7----------------------3------0-----1-----3--------3-3--------------------- * * * * * *
fill 1
------------------------------------------------------------------------------------------------------------------------------------------------9h10h12-/14p12p10--------------------8h10h12-------------------14p12p11-12~~~~~-----------------------------------------------
part 2 (verse) the timing is really weird...
gtr1---------------------------------------------------------------------------------------2------2--5---5--------------5-------------2------2------5-----5--------5---3---5-----0--0-0-0----3-------5--------3---3---5-------------------------3------------1---3----
gtr2* * *---------------------------------------------------------------------------------------2------2--5---5--------------5-------------2------2--5---5-----5--------5---3---5-----0--0-0-0--3-3-3-----5--------3---3---5-------------------------3------------1---3---- * * *
gtr1-------------------------------------------------------------------------------------------------------------------------------------------------5---------------------------7-------5-----------3-3-----5-----------5-------7\--7-7-7---5-5-5---3-3-3-3-3-3-3-3-3---3h5p3p0-5---5-5-5\--5-5-5---3-3-3---1-1-1-1-1-1-1-1-------------3---3-3----
gtr2 * * * * * * * * * *-------------------------------------------------------------------------------------------------------------------------------------------------5---------------------------7-------5-----------3-3-----5-----------5-------7\--7-7-7---5-5-5---3-3-3-3-3-3-3-3-3-----------5---5-5-5\--5-5-5---3-3-3---1-1-1-1-1-1-1-1-------------3---3-3---- * * * * * * * * * * * *
part 3 (chorus)
-------------------------------------------------------------------------------------------------------------------------9-----------9-----------9-------9----------5-----------7----7---7-7-7-7-7---7-7-7-7-7---7-7-7--3-3-3-3-3---5-5-5-5-5--------------------------------------------------------------------------------------------------------------------------- * * * * * * * * * * * * * * * * * *
----------------------------------------------------------------------------------------------------------------------------(9)-(9)--9---9---9---9-----------------------------7---7---7---7---7---7---7---7---5/7---7---------------------------------------------------5/7---7---------------------------------------------------3/5---5------------------ * * * * * *
-------------------------------------------------------------------------------------------------------------------------9-----------9-----------9-------9----------5-----------7----7---7-7-7-7-7---7-7-7-7-7---7-7-7--3-3-3-3-3---5-5-5-5-5--------------------------------------------------------------------------------------------------------------------------- * * * * * * * * * * * * * * * * * *
----------------------------------------------------------------------------------------------------------------------------(9)-(9)--9---10--9---7-----------------------------7---7---7---7-------------------9/10--10~~~~--------------------------------------------------------------------------------------------------------------------------------- * * * *
part 4 ("gaze into my mind")
-------------------------------------------------------------------------------------------------------------------------------------------------------------------------------------------------------------------------10----------10----------10------10--5-----------5-----------5-------5---10----------10----------10------10--5-----------5-----------5-------5---8---8-8-8-8-8---8-8-8-8-8---8-8-8---3---3-3-3-3-3---3-3-3-3-3---3-3-3-- * * * * * * * * * * * * * * * * * * * *
-------------------------------------------------------------------------------------------------------------------------------------------------------------------------------------------------------------------------7-----------7-----------7-------7---2-----------2-----------2-------2---7-----------7-----------7-------7---2-----------2-----------2-------2---5---5-5-5-5-5---5-5-5-5-5---5-5-5---0---0-0-0-0-0---0-0-0-0-0---0-0-0-- * * * * * * * * * * * * * * * * * * * *
-------------------------------------------------------------------------------------------------------------------------------------------------------------------------------------------------------------------------3-----------------------------------5-----------------------------------3-----------------------------------5-----------------------------------1-----------------------------------3----------------------------------
-------------------------------------------------------------------------------------------------------------------------------------------------5-----------5-----------------------9------------9-----\----------------5-----------5-----------5-----7-----9------------9-----\----------------3---3-3-3-3-3---3-3-3-3-3-----5-----7-----7---7--7-----\--------------------------------------------------------------------------------------- * * * * * * * * * * *
part 5 (chorus version 2)
---------------------------------------------------------------------------------------------------------2-------5-------------2-----4---5----7----9-----9---2-------5-------5-----2-----4---5----7----9-----9---0---0-0-3---3-3-5-----0--0--2---3----5----7--7--7-------------------3---3------------------------------ * * * * * * *
-------------------------------------------------------------------------------------------------------------------2-------5------------------------------------------------2-------5-------------2-------3-----5-------5------5-----0---0-0-3---3-3-2-0---2-------3-----3-------3------5-------------------------3-0---0-0-1-----3---3-3-3--3-3-3---- * * * * * * * * * * * * * * *
solo not sure about it, but i tried. you'll get the general idea it's off the G Aeolian if you want to try (Am relative to tuning)
gtr1----------10---------------------------------12--------------------------10-12-13----13-12------------------12-13-15----15-13-------------------------------------------------------------------------------------------------------------------------------------------------------------------------------------------------------------------------------------------------------------------------------------------------------------------
gtr2-------------------12-8--12-10-8----------------------13-10-13-12-10-------------------------------------12----------------------------------13-------------------------------------------------------------------------------------------------------------------------------------------------------------------------------------------------------------------------------------------------------------------------------------------------
gtr1-------------------------------------------------------------------------10--0---12--0---13--0---12--0---13---12-10-------------------------------------------------------------------------12-10-9~~~~-----------------------------------------------------------------------------------------------------------------------------------------------------------------------------------------------------------------------------------------
gtr2-------------------------------------------------------------------------17--0---19--0---20--0---19--0---20---19-17-------------------------------------------------------------------------19-17-16~~~~----------------------------------------------------------------------------------------------------------------------------------------------------------------------------------------------------------------------------------------
gtr1----------10---------------------------------12----------------10--------10-12-13----13-12------------------12-13-15----15-13-10-12-13----13-12-------------------------------------------------------------------------------------------------------------------------------------------------------------------------------------------------------------------------------------------------------------------------------------------------
gtr2-------------------12-8--12-10-8-------------------------------5-----------------------------------------12-------------------3--5--6-----6--5--------------------------------------------------------------------------------------------------------------------------------------------------------------------------------------------------------------------------------------------------------------------------------------------------
gtr1-------------------------------------------------------------------------10~~~---13-12-10-12~~~---15-13-12-13~~~---13-15-13-12~~~~--------------------------------------------------------------------------------------------------------------------------------------------------------------------------------------------------------------------------------------------------------------------------------------------------------------
gtr2 (?)--8~~~---12-10-8--10~~~---13-12-10-12~~~---12-13-12-10~~~~--------------------------------------------------------------------------------------------------------------------------------------------------------------------------------------------------------------------------------------------------------------------------------------------------------------------------------------------------------------------------------------
gtr1---------/12---10~~~------------------10---------------------------------10~~~--------------------12-----13--------13---12----10----------------------------------------------------------------------------------------------------------------------------------------------------------------------------------------------------------------------------------------------------------------------------------------------------------------
gtr2--------------------------------------13----------------------------------------------------------15-----17--------15---17----13----------------------------------------------------------------------------------------------------------------------------------------------------------------------------------------------------------------------------------------------------------------------------------------------------------------
gtr1--------------------------------------------------------------------------13-12-10-13-12-10-15-13-12-15-13-12-17-15-13-17-15-13-17-15-13--------------------------------------------------------------------------16-14-13----------------------------------------------------------------------------------------------------------------------------------------------------------------------------------------------------------------------------
gtr2--------------------------------------------------------------------------17-15-13-17-15-13-18-17-15-18-17-15-20-18-17-20-18-17-20-18-17--------------------------------------------------------------------------19-17-16----------------------------------------------------------------------------------------------------------------------------------------------------------------------------------------------------------------------------
gtr1---------/12---10~~~------------------10---------------------------------10~~~--------------------12-----13--------13---12----10----------------------------------------------------------------------------------------------------------------------------------------------------------------------------------------------------------------------------------------------------------------------------------------------------------------
gtr2--------------------------------------13----------------------------------------------------------15-----17--------15---17----13----------------------------------------------------------------------------------------------------------------------------------------------------------------------------------------------------------------------------------------------------------------------------------------------------------------
gtr1-------------------------12----------------------------------------------------10~~---------10-12-13---------13----12-13-12-10----12-13-12-10-----10~~~~~~~\------------------------------------------------------------------------------------------------------------------------------------------------------------------------------------------------------------------------------------------------------------------------------------------------------------------------
gtr2-------------------------15----------------------------------------------------13~~---------13-15-17---------17----15-17-15-13----15-17-15-13-----13~~~~~~~\------------------------------------------------------------------------------------------------------------------------------------------------------------------------------------------------------------------------------------------------------------------------------------------------------------------------
part 6 this part has really really weird timing
gtr1-------------------------------------------------------------------------------------------------------------------------------9---9~~--9--------------------------9---12---11----11----9~~----------7---10-9~~7~~-7----7-9-10/12-------------12------------------------------------10----------------------------------------------------------------------------------------------------
gtr2------------------------------------------------------------------------------------------------------------------------------------------------5---------------------------------------------7---7\-----3-----5------------------------7-------7-------9----7---7\-----3-----3------------3--5--7~~---5-------5-------7----5---5\-----1--------------5-7--------------------------------- * * * *
gtr1-------------------------------------------------------------------------------------------------------------------------------9---9~~--9--------9~~~--7h9p7-5h7p5-4h5~/9-----------------/14--------7---7-9-10-------------------------9h10p9-7h9p7-5/7~-------------------------------------------------------------------------------------------------------------------------------
gtr2------------------------------------------------------------------------------------------------------------------------------------------------9------12-----10---9--------------------------7---7\-----10----9------12-----10---9--------------------------7---7\-----10----7------10-----8----7--------------------------5---5\-----8------------------------------7h8p7--5h7p5-3/5~~~-
part 7 gtr1 plays same as part 6
gtr2----------------------------------------------------------------------------------------------------------------------------------------------------------------------------------------------7---7\---------------------------------------------------------7---7\---------------------------------------------------------5---5\--------------------------------------------------------
-------------------------------------------------------------------------------------------------------------------------------------------------------12-----10---9--------------------------7---7\------------------12-----10---9--------------------------7---7\------------------10-----8----7--------------------------5---5\------------------------------------7h8p7--5h7p5-3/5~~~-
part 8
-------------------------------------------------------------------------------------------------------------------------------------------------------------------5/7-7-----7---7-7-7----------7---7-7-7-----5/7-7-----5---5-5-5----------5---5-5-5-----3/5-5---- * * * * * * * *
part 9 timing is screwy because i copy+pasted it
-------------------------------------------------------------------------------------------------------------------------------------------------------------------------------------------------------------------------10----------10----------10------10--5-----------5-----------5-------5---10----------10----------10------10--5-----------5-----------5-------5---8---8---8---8---8---8---8---8---8---3---3---3---3---3---3---3---3---3-- * * * * * * * * * *
-------------------------------------------------------------------------------------------------------------------------------------------------------------------------------------------------------------------------7-----------7-----------7-------7---2-----------2-----------2-------2---7-----------7-----------7-------7---2-----------2-----------2-------2---5---5---5---5---5---5---5---5---5---0---0---0---0---0---0---0---0---0-- * * * * * * * * * *
-------------------------------------------------------------------------------------------------------------------------------------------------------------------------------------------------------------------------3-----------3-----------3-------3---5-----------5-----------5-------5---3-----------3-----------3-------3---5-----------5-----------5-------5---1---1---1---1---1---1---1---1---1---3---3---3---3---3---3---3---3---3-- * * * * * * * * * *
-------------------------------------------------------------------------------------------------------------------------------------------------5-----------5-----------------------9------------9-----\----------------5-----------5-----------5-----7-----9------------9-----\----------------3---3---3---3---3---3---3--5--5--5--7-----7---7--7-----\--------------------------------------------------------------------------------------- * * * * * * * *
part 10
---------------------------------------------------9---7---5-----2----------9---7---5-----2----------7---5---3-----0----------------------------------
* E5 counts as the last chord of previous part, dont double count it part order 0:00 part 1 (gtr 1 alone) 0:20 part 1 (both guitars) 0:39 fill 1 (guitar 2) 0:40 part 2 1:01 part 3 1:11 part 4 1:22 part 5 1:42 part 2 2:02 part 3 2:13 part 4 2:33 part 2 w/ solo 2:54 part 1 3:14 part 6 3:36 part 7 3:47 part 1 3:53 fill 1 3:55 part 2 4:15 part 8 4:27 part 9 4:36 part 8 4:46 part 9 4:56 part 3 5:06 part 4 5:36 part 10 please email any corrections or comments: entity@cfl.rr.com This file was downloaded from... Musical Manifestations (http://home.cfl.rr.com/xezlorir/mm) if the link is not found, email: Xezlorir@hotmail.com
Please rate this tab:
x1.0