Fall Out Boy – Disloyal Order Of Water Buffaloes tab

----------------------------------------------------------------------------
Disloyal Order of Water Buffaloes - Fall Out Boy
----------------------------------------------------------------------------

Tabbed by: Luke Bennett(rasugod)
Email: aerofreak.lb@cox.net
Tuning: drop D

D5(D power chords) in this song are played on the open low E(drop D) string

Chords in () are optional for the beginning, just strum once each change

Please comment, especially on G2 for the 2nd part of the verse and the chorus

Intro:

(D)        (A)
I’m coming apart at the seams

(Bm)                 (G)
Pitching myself into other people's dreams

     (D)         (A)
Like buzz, buzz, buzz

              (Bm)       (G)       (D)
Doc, there's a hole where something was

              (Bm)       (G)       (D)
Doc, there's a hole where something was


Guitars enter(distorted):

G1: come in 3rd time of G2's part(slide down from 12th fret)|----------------------------------- | \|----------------------------------- ||----------------------------------- ||-0---------------------------7----- ||-0---------------------------7----- ||-0---------------------------7----- |
|x2|----------------------------------- ||----------------------------------- ||----------------------------------- ||-5--------------------------------- ||-5--------------------------------- ||-5--------------------------------- | /
G2: this is the main riff|-2-2-2-2-2---2-2-2---2-2-2-0-0-0-||-3-3-3-3-3---3-3-3---3-3-3-3-3-3-||-2-2-2-2-2---2-2-2---2-2-2-2-2-2-| x6|-0-0-0-0-0---0-0-0---0-0-0-0-0-0-||---------------------------------||---------------------------------|
Verse 1a: G1 play previous riff 2x G2 play main riff 4x Lyrics: Fell out of bed. Butterfly bandage, but don't worry You'll never remember, your head is far too blurry Verse 1b:
G1:|---------------------------------||---------------------------------||---------------------------------||-----7-------7-------7-----------| x3|-5-5-----5-5-----5-5-----5-5-4---||---------------------------------| . . . . . . . .
then,
|---------------------------------||---------------------------------||---------------------------------||-----7-------7---7-7-7-7-7-7-7---||-5-5-----5-5-----7-7-7-7-7-7-7---||-----------------7-7-7-7-7-7-7---| . . . .
G2:(i'm only partly sure about this, i could be wrong)|---------------------------------||---------------------------------||---------------------------------||---------------------------------||---------7-7-------------9-9-----||-9-9-------------7-7-------------| . . . . . . . .
|---------------------------------||---------------------------------||---------------------------------||---------------------------------||---------7-7-------------5-5-4-4-||-5-5-------------7-7-------------| . . . . . . . .
|---------------------------------||---------------------------------||---------------------------------||---------------------------------||---------7-7-------------9-9-----||-9-9-------------7-7-------------| . . . . . . . .
|---------------------------------||---------------------------------||---------------------------------||-----------------7-7-7-7-7-7-7---||---------7-7-----7-7-7-7-7-7-7---||-5-5-------------7-7-7-7-7-7-7---| . . . .
Lyrics: Put him in the back of a squad car, Restrain that man He needs his head put through a cat scan. Hey editor, I’m undeniable Hey Doctor, I’m certifiable Pre-chorus 1: I've noticed many people seem to think that the bass in the pre-chorus is a guitar, it isn't, so i didn't tab it
G1:(not sure if this is distorted or not)|---------------------------------||---------------------------------||-------4---------------6---------||-------5---------------7---------||---------------------------------||---------------------------------|
|---------------------------------||---------------------------------||-------7-------------------------||-------9-------------------------||---------------------------------||---------------------------------|
|---------------------------------||---------------------------------||-------4---------------6---------||-------5---------------7---------||---------------------------------||---------------------------------|
|---------------------------------||---------------------------------||-------7-------------------------||-------9---------5-\-------------||-----------------5-\-------------||-----------------5-\-------------|
|-----------------||-----------------||-----------------||-----------------||-----------------||-----------------|
G2:|---------------------------------||---------------------------------||---------------------------------||---------------------------------||---------------------------------||---------------------------------|
|---------------------------------||-------------------------8p7-----||-----------------9p7-9-------9p7-||---------------------------------||---------------------------------||---------------------------------|
|---------------------------------||-----------------2---------------||-4-------------------------------||---------------------------------||---------------------------------||---------------------------------|
|-----------------2-2-2-2-2---2-2-||-3---------------3-3-3-3-3---3-3-||-----------------2-2-2-2-2---2-2-||-----------------0-0-0-0-0---0-0-||---------------------------------||---------------------------------|
|-2---2-2-2-0-0-0-||-3---3-3-3-3-3-3-||-2---2-2-2-2-2-2-||-0---0-0-0-0-0-0-||-----------------||-----------------|
Lyrics: I’m a loose bolt of a complete machine What a match, I’m half doomed and you’re silly sweet Chorus 1: G1: distorted, there are 8 strums of each power chord D5, G5, B5, A5 x4
G2:i'm extremely unsure about this part, it's hard to hear.|----------------------------------- | \|-7------10-------8------10--------- ||-----7-------7-------7-------7----- ||----------------------------------- ||----------------------------------- ||----------------------------------- |
|4x|----------------------------------- ||-7------10-------8----------------- ||-----7-------7-------7------------- ||----------------------------------- ||----------------------------------- ||----------------------------------- | /
Lyrics: So boycott love, Detox just to retox And I’d promise you anything for another shot at life Imperfect boys, With their perfect ploys Nobody wants to hear you sing about tragedy (wants to hear you sing about tragedy) Interlude: Same as Verse 1a w/o lyrics Verse 2a:
G1: the same as verse 1a, but w/ a strumming pattern similar to this|----------------------------------- | \|----------------------------------- ||----------------------------------- ||-0---0-0-0---0-0-0---0-0-0---7----- ||-0---0-0-0---0-0-0---0-0-0---7----- ||-0---0-0-0---0-0-0---0-0-0---7----- |
|x2|----------------------------------- ||----------------------------------- ||----------------------------------- ||-5---5-5-5---5-5-5---5-5-5---5----- ||-5---5-5-5---5-5-5---5-5-5---5----- ||-5---5-5-5---5-5-5---5-5-5---5----- | /
G2: same as verse 1a (main riff 4x) Lyrics: Little girl, You got my staring eye Or was it just a telescopic camera lie Verse 2b: Same as verse 1b but w/ lyrics: Pretty dolls in the highway Truck stop stalls Lock-less jails to deny my rules So rookies leave your badge and your gun on the desk when you leave the room Pre-chorus 2:
G1:(not sure if this is distorted or not)|---------------------------------||---------------------------------||-------4---------------6---------||-------5---------------7---------||---------------------------------||---------------------------------|
|---------------------------------||---------------------------------||-------7-------------------------||-------9-------------------------||---------------------------------||---------------------------------|
|---------------------------------||---------------------------------||-------4---------------6---------||-------5---------------7---------||---------------------------------||---------------------------------|
|---------------------------------||---------------------------------||-------7---------------------4-4-||-------9---------5-5-5-7-7-7-4-4-||-----------------5-5-5-7-7-7-2-2-||-----------------5-5-5-7-7-7-----|
|-----------------||-----------------||-4-6-6-6-7-7-9-9-||-4-6-6-6-7-7-9-9-||-2-4-4-4-5-5-7-7-||-----------------|
G2:|---------------------------------||---------------------------------||---------------------------------||---------------------------------||---------------------------------||---------------------------------|
|---------------------------------||-------------------------8p7-----||-----------------9p7-9-------9p7-||---------------------------------||---------------------------------||---------------------------------|
|---------------------------------||-----------------2---------------||-4-------------------------------||---------------------------------||---------------------------------||---------------------------------|
|---------------------------------||-3-------------------------------||-----------------------------4-4-||-----------------5-5-5-7-7-7-4-4-||-----------------5-5-5-7-7-7-2-2-||-----------------5-5-5-7-7-7-----|
|-----------------||-----------------||-4-6-6-6-7-7-9-9-||-4-6-6-6-7-7-9-9-||-2-4-4-4-5-5-7-7-||-----------------|
Lyrics(same as pre-chorus 1): I’m a loose bolt of a complete machine What a match, I’m half doomed and you’re silly sweet Repeat the chorus Break: G1: Strum and hold a D5 G2: Play main riff 8x Lyrics: (Detox just to retox) x4(then 4 more times while Patrick sings) So Boycott love(boycott love) Boycott love(boycott love) Last Chorus: Same, but both guitars play their chorus riff one extra time (5x) and Patrick repeats last line of the chorus Outro:
G1:|---------------------------------||---------------------------------||---------------------------------||-0-------------------------------| x2|-0-------------------------------||-0-------------------------------|
G2: main riff x2 Hope everybody likes the tab! Please comment and rate!
Please rate this tab:
x1.0