Fall Out Boy - My Songs Know What You Did In The Dark Light Em Up tab version 4

Title: My Songs Know What You Did In The Dark (Light Em Up)
Artist: Fall Out Boy
Tempo = 155
Guitar 1

Legend
L - tied note
x - dead note
h - hammer on/pull off
b - bend
s - slide
~ - vibrato
g - ghost note
> - accentuated note
t - trill
M - palm mute
. - staccato
P - popping (bass)
S - slapping (bass)
+ - tapping
W - wide vibrato
< - fade in
w - whammy bar
= - tremolo picking
v - brush up
^ - brush down
V - pick stroke up
n - pick stroke down

GUITAR 1 (GUITAR 2 TABS FOLLOW GUITAR 1 TABS AND THEN BASS)


E |-------|-------|-------|-------|-------|-------|-------|B |-------|-------|-------|-------|-------|-------|-------|G |-------|-------|-------|-------|-------|-------|-------|D |-------|-------|-------|-------|-------|-------|-------|A |-------|-------|-------|-------|-------|-------|-------|D |-------|-------|-------|-------|-------|-------|-------|
----------------------------|----------------------------|----------------------------|----------------------------|-----------------------2s---|--7~-7~-7~-7~-7~-7~-7~-7~---|----------------------------|----------------------------|----------------------------|----------------------------|----------------------------|----------------------------|
----------------------------|----------------------------|----------------------------|----------------------------|--7~-7~-7~-7~-7~-7~-7~-7~---|--7~-7~-7~-7~-7~-7~-7~-7~---|----------------------------|----------------------------|----------------------------|----------------------------|----------------------------|----------------------------|
----------------------------|----------------------------|----------------------------|----------------------------|--7~-7~-7~-7~-7~-7~-7~-7~---|----------------------------|----------------------------|--7M-7M-7M-7M-7M-7M-7M-7M---|----------------------------|--5M-5M-5M-5M-5M-5M-5M-5M---|----------------------------|----------------------------|
----------------------------|----------------------------|----------------------------|----------------------------|----------------------------|----------------------------|--7M-7M-7M-7M-7M-7M-7M-7M---|--3M-3M-3M-3M-3M-3M-3M-3M---|--5M-5M-5M-5M-5M-5M-5M-5M---|--1M-1M-1M-1M-1M-1M-1M-1M---|----------------------------|----------------------------|
----------------------------|----------------------------|----------------------------|----------------------------|----------------------------|----------------------------|--3M-3M-3M-3M-3M-3M-3M-3M---|--7M-7M-7M-7M-7M-7M-7M-7M---|--1M-1M-1M-1M-1M-1M-1M-1M---|--5M-5M-5M-5M-5M-5M-5M-5M---|----------------------------|----------------------------|
----------------------------|----------------------------|----------------------------|----------------------------|----------------------------|----------------------------|--7M-7M-7M-7M-7M-7M-7M-7M---|--3M-3M-3M-3M-3M-3M-3M-3M---|--5M-5M-5M-5M-5M-5M-5M-5M---|--1M-1M-1M-1M-1M-1M-1M-1M---|----------------------------|----------------------------|
----------------------------|----------------------------|----------------------------|----------------------------|----------------------------|----------------------------|--3M-3M-3M-3M-3M-3M-3M-3M---|--7M-7M-7M-7M-7M-7M-7M-7M---|--1M-1M-1M-1M-1M-1M-1M-1M---|--5M-5M-5M-5M-5M-5M-5M-5M---|----------------------------|----------------------------|
----------------------------|----------------------------|----------------------------|----------------------------|----------------------------|----------------------------|--7M-7M-7M-7M-7M-7M-7M-7M---|--3M-3M-3M-3M-3M-3M-3M-3M---|--5M-5M-5M-5M-5M-5M-5M-5M---|--1M-1M-1M-1M-1M-1M-1M-1M---|----------------------------|----------------------------|
----------------------------|----------------------------|----------------------------|----------------------------|----------------------------|----------------------------|--3M-3M-3M-3M-3M-3M-3M-3M---|--7M-7M-7M-7M-7M-7M-7M-7M---|--1M-1M-1M-1M-1M-1M-1M-1M---|--5M-5M-5M-5M-5M-5M-5M-5M---|----------------------------|----------------------------|
----------------------------|----------------------------|----------------------------|----------------------------|----------------------------|----------------------------|--7M-7M-7M-7M-7M-7M-7M-7M---|--3M-3M-3M-3M-3M-3M-3M-3M---|--5M-5M-5M-5M-5M-5M-5M-5M---|--1M-1M-1M-1M-1M-1M-1M-1M---|----------------------------|----------------------------|
----------------------------|----------------------------|----------------------------|----------------------------|----------------------------|----------------------------|--3M-3M-3M-3M-3M-3M-3M-3M---|--7M-7M-7M-7M-7M-7M-7M-7M---|--1M-1M-1M-1M-1M-1M-1M-1M---|--5M-5M-5M-5M-5M-5M-5M-5M---|----------------------------|----------------------------|
----------------------------|----------------------------|----------------------------|----------------------------|----------------------------|--7--7--7--7--7--7--7--7----|--7M-7M-7M-7M-7M-7M-7M-7M---|--7M-7M-7M-7M-7M-7M-7M-7M---|--5M-5M-5M-5M-5M-5M-5M-5M---|--5M-5M-5M-5M-5M-5M-5M-5M---|----------------------------|----------------------------|
----------------------------|----------------------------|----------------------------|----------------------------|--7--7--7--7--7-------------|--7--7--7--7--7--7--7--7----|--7M-7M-7M-7M-7M------------|--7--7--7--7--7--7--7--7----|--5M-5M-5M-5M-5M------------|--5--5--5--5--5--5--5--5----|----------------------------|----------------------------|
----------------------------|----------------------------|----------------------------|----------------------------|--3--3--3--3--3--3--3--3----|----------------------------|--3--3--3--3--3--3--3--3----|--3--3--3--3--3--3--3--3----|--1--1--1--1--1--1--1--1----|--3--3--3--3--3--3--3--3----|----------------------------|--3--3--3--3--3--3--3--3----|
----------------------------|----------------------------|----------------------------|----------------------------|--5--5--5--5--5--5--5--5----|--7--7--7--7--7--7--7--7----|--5--5--5--5--5--5--5--5----|--7--7--7--7--7--7--7--7----|--3--3--3--3--3--3--3--3----|--5--5--5--5--5--5--5--5----|----------------------------|----------------------------|
----------------------------|----------------------------|----------------------------|----------------------------|--3--3--3--3--3--3--3--3----|----------------------------|--3--3--3--3--3--3--3--3----|--3--3--3--3--3--3--3--3----|--1--1--1--1--1--1--1--1----|--3--3--3--3--3--3--3--3----|----------------------------|--3--3--3--3--3--3--3--3----|
----------------------------|----------------------------|----------------------------|----------------------------|--5--5--5--5--5--5--5--5----|--7--7--7--7--7--7--7--7----|--5--5--5--5--5--5--5--5----|--7--7--7--7--7--7--7--7----|--3--3--3--3--3--3--3--3----|--5--5--5--5--5--5--5--5----|----------------------------|----------------------------|
----------------------------|----------------------------|----------------------------|----------------------------|--3--3--3--3--3--3--3--3----|----------------------------|--3--3--3--3--3--3--3--3----|--3--3--3--3--3--3--3--3----|--1--1--1--1--1--1--1--1----|--3--3--3--3--3--3--3--3----|----------------------------|--3--3--3--3--3--3--3--3----|
----------------------------|----------------------------|----------------------------|----------------------------|--5--5--5--5--5--5--5--5----|--7--7--7--7--7--7--7--7----|--5--5--5--5--5--5--5--5----|--7--7--7--7--7--7--7--7----|--3--3--3--3--3--3--3--3----|--5--5--5--5--5--5--5--5----|----------------------------|----------------------------|
----------------------------|----------------------------|----------------------------|----------------------------|--3--3--3--3--3--3--3--3----|----------------------------|--3--3--3--3--3--3--3--3----|--3--3--3--3--3--3--3--3----|--1--1--1--1--1--1--1--1----|--3--3--3--3--3--3--3--3----|----------------------------|--3--3--3--3--3--3--3--3----|
----------------------------|----------------------------|----------------------------|----------------------------|--5--5--5--5--5--5--5--5----|----------------------------|--5--5--5--5--5--5--5--5----|--7M-7M-7M-7M-7M-7M-7M-7M---|--3--3--3--3--3--3--3--3----|--5M-5M-5M-5M-5M-5M-5M-5M---|----------------------------|----------------------------|
----------------------------|----------------------------|----------------------------|----------------------------|----------------------------|----------------------------|--7M-7M-7M-7M-7M-7M-7M-7M---|--3M-3M-3M-3M-3M-3M-3M-3M---|--5M-5M-5M-5M-5M-5M-5M-5M---|--1M-1M-1M-1M-1M-1M-1M-1M---|----------------------------|----------------------------|
----------------------------|----------------------------|----------------------------|----------------------------|----------------------------|----------------------------|--3M-3M-3M-3M-3M-3M-3M-3M---|--7M-7M-7M-7M-7M-7M-7M-7M---|--1M-1M-1M-1M-1M-1M-1M-1M---|--5M-5M-5M-5M-5M-5M-5M-5M---|----------------------------|----------------------------|
----------------------------|----------------------------|----------------------------|----------------------------|----------------------------|----------------------------|--7M-7M-7M-7M-7M-7M-7M-7M---|--3M-3M-3M-3M-3M-3M-3M-3M---|--5M-5M-5M-5M-5M-5M-5M-5M---|--1M-1M-1M-1M-1M-1M-1M-1M---|----------------------------|----------------------------|
----------------------------|----------------------------|----------------------------|----------------------------|----------------------------|----------------------------|--3M-3M-3M-3M-3M-3M-3M-3M---|--7M-7M-7M-7M-7M-7M-7M-7M---|--1M-1M-1M-1M-1M-1M-1M-1M---|--5M-5M-5M-5M-5M-5M-5M-5M---|----------------------------|----------------------------|
----------------------------|----------------------------|-------|----------------------------|----------------------------|-------|----------------------------|----------------------------|-------|--7M-7M-7M-7M-7M-7M-7M-7M---|--3M-3M-3M-3M-3M-3M-3M-3M---|-------|--5M-5M-5M-5M-5M-5M-5M-5M---|--1M-1M-1M-1M-1M-1M-1M-1M---|-------|----------------------------|----------------------------|-------|
----------------------------|----------------------------|----------------------------|----------------------------|----------------------------|----------------------------|--7M-7M-7M-7M-7M-7M-7M-7M---|--7M-7M-7M-7M-7M-7M-7M-7M---|--5M-5M-5M-5M-5M-5M-5M-5M---|--5M-5M-5M-5M-5M-5M-5M-5M---|----------------------------|----------------------------|
----------------------------|----------------------------|----------------------------|----------------------------|----------------------------|----------------------------|--3M-3M-3M-3M-3M-3M-3M-3M---|--3M-3M-3M-3M-3M-3M-3M-3M---|--1M-1M-1M-1M-1M-1M-1M-1M---|--1M-1M-1M-1M-1M-1M-1M-1M---|----------------------------|----------------------------|
----------------------------|----------------------------|----------------------------|----------------------------|----------------------------|----------------------------|--7M-7M-7M-7M-7M-7M-7M-7M---|--7M-7M-7M-7M-7M-7M-7M-7M---|--5M-5M-5M-5M-5M-5M-5M-5M---|--5M-5M-5M-5M-5M-5M-5M-5M---|----------------------------|----------------------------|
----------------------------|----------------------------|----------------------------|----------------------------|--7--7--7--7--7--7--7--7----|--7--7--7--7--7-------------|--7M-7M-7M-7M-7M-7M-7M-7M---|--7M-7M-7M-7M-7M------------|--5M-5M-5M-5M-5M-5M-5M-5M---|--5M-5M-5M-5M-5M------------|----------------------------|----------------------------|
----------------------------|----------------------------|----------------------------|----------------------------|--7--7--7--7--7--7--7--7----|--3--3--3--3--3--3--3--3----|--7--7--7--7--7--7--7--7----|--3--3--3--3--3--3--3--3----|--5--5--5--5--5--5--5--5----|--1--1--1--1--1--1--1--1----|----------------------------|----------------------------|
----------------------------|----------------------------|----------------------------|----------------------------|----------------------------|--5--5--5--5--5--5--5--5----|--3--3--3--3--3--3--3--3----|--5--5--5--5--5--5--5--5----|--3--3--3--3--3--3--3--3----|--3--3--3--3--3--3--3--3----|--3--3--3--3--3--3--3--3----|----------------------------|
----------------------------|----------------------------|----------------------------|----------------------------|--7--7--7--7--7--7--7--7----|--3--3--3--3--3--3--3--3----|--7--7--7--7--7--7--7--7----|--3--3--3--3--3--3--3--3----|--5--5--5--5--5--5--5--5----|--1--1--1--1--1--1--1--1----|----------------------------|----------------------------|
----------------------------|----------------------------|----------------------------|----------------------------|----------------------------|--5--5--5--5--5--5--5--5----|--3--3--3--3--3--3--3--3----|--5--5--5--5--5--5--5--5----|--3--3--3--3--3--3--3--3----|--3--3--3--3--3--3--3--3----|--3--3--3--3--3--3--3--3----|----------------------------|
----------------------------|----------------------------|----------------------------|----------------------------|--7--7--7--7--7--7--7--7----|--3--3--3--3--3--3--3--3----|--7--7--7--7--7--7--7--7----|--3--3--3--3--3--3--3--3----|--5--5--5--5--5--5--5--5----|--1--1--1--1--1--1--1--1----|----------------------------|----------------------------|
----------------------------|----------------------------|----------------------------|----------------------------|----------------------------|--5--5--5--5--5--5--5--5----|--3--3--3--3--3--3--3--3----|--5--5--5--5--5--5--5--5----|--3--3--3--3--3--3--3--3----|--3--3--3--3--3--3--3--3----|--3--3--3--3--3--3--3--3----|----------------------------|
----------------------------|----------------------------|----------------------------|----------------------------|--7--7--7--7--7--7--7--7----|--3--3--3--3--3--3--3--3----|--7--7--7--7--7--7--7--7----|--3--3--3--3--3--3--3--3----|--5--5--5--5--5--5--5--5----|--1--1--1--1--1--1--1--1----|----------------------------|----------------------------|
----------------------------|----------------------------|-------|-------|----------------------------|----------------------------|-------|-------|----------------------------|--5--5--5--5--5--5--5--5----|-------|-------|--3--3--3--3--3--3--3--3----|--5--5--5--5--5--5--5--5----|-------|-------|--3--3--3--3--3--3--3--3----|--3--3--3--3--3--3--3--3----|-------|-------|--3--3--3--3--3--3--3--3----|----------------------------|-------|-------|
-------|-------|-------|-------|-------|-------|-------|-------|-------|-------|-------|-------|-------|-------|-------|-------|-------|-------|-------|-------|-------|-------|-------|-------|-------|-------|-------|-------|-------|-------|-------|-------|-------|-------|-------|-------|-------|-------|-------|-------|-------|-------|-------|-------|-------|-------|-------|-------|-------|-------|-------|-------|-------|-------|-------|-------|-------|-------|-------|-------|
-------|----------------------------|----------------------------|-------|----------------------------|----------------------------|-------|--7--7--7--7--7--7--7--7----|--3--3--3--3--3--3--3--3----|-------|--7--7--7--7--7--7--7--7----|--3--3--3--3--3--3--3--3----|-------|--5--5--5--5--5--5--5--5----|--1--1--1--1--1--1--1--1----|-------|----------------------------|----------------------------|
----------------------------|----------------------------|----------------------------|----------------------------|----------------------------|--5--5--5--5--5--5--5--5----|--3--3--3--3--3--3--3--3----|--5--5--5--5--5--5--5--5----|--3--3--3--3--3--3--3--3----|--3--3--3--3--3--3--3--3----|--3--3--3--3--3--3--3--3----|----------------------------|
----------------------------|----------------------------|----------------------------|----------------------------|--7--7--7--7--7--7--7--7----|--3--3--3--3--3--3--3--3----|--7--7--7--7--7--7--7--7----|--3--3--3--3--3--3--3--3----|--5--5--5--5--5--5--5--5----|--1--1--1--1--1--1--1--1----|----------------------------|----------------------------|
----------------------------|----------------------------|----------------------------|----------------------------|----------------------------|--5--5--5--5--5--5--5--5----|--3--3--3--3--3--3--3--3----|--5--5--5--5--5--5--5--5----|--3--3--3--3--3--3--3--3----|--3--3--3--3--3--3--3--3----|--3--3--3--3--3--3--3--3----|----------------------------|
----------------------------|----------------------------|----------------------------|----------------------------|--7--7--7--7--7--7--7--7----|--3--3--3--3--3--3--3--3----|--7--7--7--7--7--7--7--7----|--3--3--3--3--3--3--3--3----|--5--5--5--5--5--5--5--5----|--1--1--1--1--1--1--1--1----|----------------------------|----------------------------|
----------------------------|----------------------------|----------------------------|----------------------------|----------------------------|--5--5--5--5--5--5--5--5----|--3--3--3--3--3--3--3--3----|--5--5--5--5--5--5--5--5----|--3--3--3--3--3--3--3--3----|--3--3--3--3--3--3--3--3----|--3--3--3--3--3--3--3--3----|----------------------------|
----------------------------|----------------------------|----------------------------|----------------------------|--7--7--7--7--7--7--7--7----|--3--3--3--3--3--3--3--3----|--7--7--7--7--7--7--7--7----|--3--3--3--3--3--3--3--3----|--5--5--5--5--5--5--5--5----|--1--1--1--1--1--1--1--1----|----------------------------|----------------------------|
----------------------------|----------------------------|-------|-------|----------------------------|----------------------------|-------|-------|----------------------------|--5--5--5--5--5--5--5--5----|-------|-------|--3--3--3--3--3--3--3--3----|--5--5--5--5--5--5--5--5----|-------|-------|--3--3--3--3--3--3--3--3----|--3--3--3--3--3--3--3--3----|-------|-------|--3--3--3--3--3--3--3--3----|----------------------------|-------|-------|
-------|-------||-------|-------||-------|-------||-------|-------||-------|-------||-------|-------||
GUITAR 2 (BASS TABS ARE FOUND FURTHER DOWN)
E |-------|-------|-------|-------|-------|-------|-------|-------|-------|B |-------|-------|-------|-------|-------|-------|-------|-------|-------|G |-------|-------|-------|-------|-------|-------|-------|-------|-------|D |-------|-------|-------|-------|-------|-------|-------|-------|-------|A |-------|-------|-------|-------|-------|-------|-------|-------|-------|D |-------|-------|-------|-------|-------|-------|-------|-------|-------|
-------|-------|-------|-------|----------------|-------|----------------|-------|-------|-------|-------|----------------|-------|----------------|-------|-------|-------|-------|----------------|-------|--3--3----------|-------|-------|-------|-------|--0--0----------|-------|--3--3----------|-------|-------|-------|-------|--0--0----------|-------|--1--1----------|-------|-------|-------|-------|--0--0----------|-------|----------------|
-------|-------|-------|-------|-------|----------------|-------|-------|-------|-------|-------|-------|----------------|-------|-------|-------|-------|-------|-------|----------------|-------|-------|-------|-------|-------|-------|--0--0----------|-------|-------|-------|-------|-------|-------|--0--0----------|-------|-------|-------|-------|-------|-------|--0--0----------|-------|
----------------|-------|----|----|----|----|----|----|----|----------------|-------|----|----|----|----|----|----|----|--3--3----------|-------|----|----|----|----|----|----|----|--3--3----------|-------|----|----|----|----|----|----|----|--1--1----------|-------|----|----|----|----|----|----|----|----------------|-------|----|----|----|----|----|----|----|
----------------------------|----------------------------|----------------------------|----------------------------|--10-10-10-10-10-10-10-10---|--7--7--7--7--7--7--7--7----|--10-10-10-10-10-10-10-10---|--8--8--8--8--8--8--8--8----|----------------------------|----------------------------|----------------------------|----------------------------|
----------------------------|----------------------------|----------------------------|----------------------------|--10-10-10-10-10-10-10-10---|--9--9--9--9--9--9--9--9----|--10-10-10-10-10-10-10-10---|--10-10-10-10-10-10-10-10---|----------------------------|----------------------------|----------------------------|----------------------------|
----------------------------|----------------------------|----------------------------|----------------------------|--10-10-10-10-10-10-10-10---|--7--7--7--7--7--7--7--7----|--10-10-10-10-10-10-10-10---|--8--8--8--8--8--8--8--8----|----------------------------|----------------------------|----------------------------|----------------------------|
----------------------------|----------------------------|----------------------------|-----------------------15s--|--10-10-10-10-10-10-10-10---|--9--9--9--9--9--9--9-------|--10-10-10-10-10-10-10-10---|--10-10-10-10-10-10-10------|----------------------------|----------------------------|----------------------------|----------------------------|
--13----13----13----13------|--13----13----13----13------|-----15----15----15----15---|-----15----15----15----15---|----------------------------|----------------------------|----------------------------|----------------------------|----------------------------|----------------------------|----------------------------|----------------------------|
--13----13----13----13------|--12----12----12----12------|-----15----15----15----15---|-----13----13----13----13---|----------------------------|----------------------------|----------------------------|----------------------------|----------------------------|----------------------------|----------------------------|----------------------------|
--13----13----13----13------|--13----13----13----13------|-----15----15----15----15---|-----15----15----15----15---|----------------------------|----------------------------|----------------------------|----------------------------|----------------------------|----------------------------|----------------------------|----------------------------|
--13----13----13----13------|--12----12----12----12------|-------|-----15----15----15----15---|-----13----13----13----13---|-------|----------------------------|----------------------------|-------|----------------------------|----------------------------|-------|----------------------------|----------------------------|-------|----------------------------|----------------------------|-------|
----------------|-------|----------------|-------|-------|-------|-------|----------------|-------|----------------|-------|-------|-------|-------|----------------|-------|--3--3----------|-------|-------|-------|-------|--0--0----------|-------|--3--3----------|-------|-------|-------|-------|--0--0----------|-------|--1--1----------|-------|-------|-------|-------|--0--0----------|-------|----------------|-------|-------|-------|-------|
-------|----------------|-------|-------|-------|-------|-------|-------|-------|----------------|-------|-------|-------|-------|-------|-------|-------|----------------|-------|-------|-------|-------|-------|-------|-------|--0--0----------|-------|-------|-------|-------|-------|-------|-------|--0--0----------|-------|-------|-------|-------|-------|-------|-------|--0--0----------|-------|-------|-------|-------|-------|-------|
-------|-------|-------|-------|----------------------------|-------|-------|-------|-------|----------------------------|-------|-------|-------|-------|--10-10-10-10-10-10-10-10---|-------|-------|-------|-------|--10-10-10-10-10-10-10-10---|-------|-------|-------|-------|----------------------------|-------|-------|-------|-------|----------------------------|
----------------------------|----------------------------|----------------------------|----------------------------|--7--7--7--7--7--7--7--7----|--10-10-10-10-10-10-10-10---|--8--8--8--8--8--8--8--8----|--10-10-10-10-10-10-10-10---|----------------------------|----------------------------|----------------------------|----------------------------|
----------------------------|----------------------------|----------------------------|----------------------------|--9--9--9--9--9--9--9--9----|--10-10-10-10-10-10-10-10---|--10-10-10-10-10-10-10-10---|--10-10-10-10-10-10-10-10---|----------------------------|----------------------------|----------------------------|----------------------------|
----------------------------|----------------------------|----------------------------|----------------------------|--7--7--7--7--7--7--7--7----|--10-10-10-10-10-10-10-10---|--8--8--8--8--8--8--8--8----|--10-10-10-10-10-10-10-10---|----------------------------|----------------------------|----------------------------|----------------------------|
----------------------------|--13----13----13----13------|-----------------------15s--|-----15----15----15----15---|--9--9--9--9--9--9--9-------|----------------------------|--10-10-10-10-10-10-10------|----------------------------|----------------------------|----------------------------|----------------------------|----------------------------|
--13----13----13----13------|--13----13----13----13------|-----15----15----15----15---|-----15----15----15----15---|----------------------------|----------------------------|----------------------------|----------------------------|----------------------------|----------------------------|----------------------------|----------------------------|
--12----12----12----12------|--13----13----13----13------|-----13----13----13----13---|-----15----15----15----15---|----------------------------|----------------------------|----------------------------|----------------------------|----------------------------|----------------------------|----------------------------|----------------------------|
--13----13----13----13------|--13----13----13----13------|-----15----15----15----15---|-----15----15----15----15---|----------------------------|----------------------------|----------------------------|----------------------------|----------------------------|----------------------------|----------------------------|----------------------------|
--12----12----12----12------|-------|-------|-------|-------|-------|-------|-----13----13----13----13---|-------|-------|-------|-------|-------|-------|----------------------------|-------|-------|-------|-------|-------|-------|----------------------------|-------|-------|-------|-------|-------|-------|----------------------------|-------|-------|-------|-------|-------|-------|----------------------------|-------|-------|-------|-------|-------|-------|
-------|-------|-------|-------|-------|-------|-------|-------|-------|-------|-------|-------|-------|-------|-------|-------|-------|-------|-------|-------|-------|-------|-------|-------|-------|-------|-------|-------|-------|-------|-------|-------|-------|-------|-------|-------|-------|-------|-------|-------|-------|-------|
----------------------------|----------------------------|----------------------------|----------------------------|--10-10-10-10-10-10-10-10---|--7--7--7--7--7--7--7--7----|--10-10-10-10-10-10-10-10---|--8--8--8--8--8--8--8--8----|----------------------------|----------------------------|----------------------------|----------------------------|
----------------------------|----------------------------|----------------------------|----------------------------|--10-10-10-10-10-10-10-10---|--9--9--9--9--9--9--9--9----|--10-10-10-10-10-10-10-10---|--10-10-10-10-10-10-10-10---|----------------------------|----------------------------|----------------------------|----------------------------|
----------------------------|----------------------------|----------------------------|----------------------------|--10-10-10-10-10-10-10-10---|--7--7--7--7--7--7--7--7----|--10-10-10-10-10-10-10-10---|--8--8--8--8--8--8--8--8----|----------------------------|----------------------------|----------------------------|----------------------------|
----------------------------|----------------------------|----------------------------|-----------------------15s--|--10-10-10-10-10-10-10-10---|--9--9--9--9--9--9--9-------|--10-10-10-10-10-10-10-10---|--10-10-10-10-10-10-10------|----------------------------|----------------------------|----------------------------|----------------------------|
--13----13----13----13------|--13----13----13----13------|-----15----15----15----15---|-----15----15----15----15---|----------------------------|----------------------------|----------------------------|----------------------------|----------------------------|----------------------------|----------------------------|----------------------------|
--13----13----13----13------|--12----12----12----12------|-----15----15----15----15---|-----13----13----13----13---|----------------------------|----------------------------|----------------------------|----------------------------|----------------------------|----------------------------|----------------------------|----------------------------|
--13----13----13----13------|--13----13----13----13------|-----15----15----15----15---|-----15----15----15----15---|----------------------------|----------------------------|----------------------------|----------------------------|----------------------------|----------------------------|----------------------------|----------------------------|
--13----13----13----13------|--12----12----12----12------|-------|-------|-----15----15----15----15---|-----13----13----13----13---|-------|-------|----------------------------|----------------------------|-------|-------|----------------------------|----------------------------|-------|-------|----------------------------|----------------------------|-------|-------|----------------------------|----------------------------|-------|-------|
-------|-------||-------|-------||-------|-------||-------|-------||-------|-------||-------|-------||
BASS TABS
G |-------|-------|-------|-------|-------|-------|-------|-------|-------|D |-------|-------|-------|-------|-------|-------|-------|-------|-------|A |-------|-------|-------|-------|-------|-------|-------|-------|-------|D |-------|-------|-------|-------|-------|-------|-------|-------|-------|
-------|-------|-------|-------|----------------|-------|----------------|-------|-------|-------|-------|----------------|-------|----------------|-------|-------|-------|-------|----------------|-------|--1--1----------|-------|-------|-------|-------|--0--0----------|-------|----------------|
-------|-------|-------|-------|-------|----------------|-------|-------|-------|-------|-------|-------|----------------|-------|-------|-------|-------|-------|-------|----------------|-------|-------|-------|-------|-------|-------|--0--0----------|-------|
----------------|-------|-------|-------|-------|-------|-------|-------|----------------|-------|-------|-------|-------|-------|-------|-------|--1--1----------|-------|-------|-------|-------|-------|-------|-------|----------------|-------|-------|-------|-------|-------|-------|-------|
-------|----------------------------|----------------------------|-------|----------------------------|----------------------------|-------|--5--5--5--5--5--5--5--5----|--1--1--1--1--1--1--1--1----|-------|----------------------------|----------------------------|
----------------------------|----------------------------|----------------------------|----------------------------|----------------------------|--3--3--3--3--3--3--3--3----|--3--3--3--3--3--3--3--3----|----------------------------|
----------------------------|----------------------------|----------------------------|----------------------------|--5--5--5--5--5--5--5--5----|--1--1--1--1--1--1--1--1----|----------------------------|----------------------------|
----------------------------|----------------------------|----------------------------|----------------------------|----------------------------|--3--3--3--3--3--3--3--3----|--3--3--3--3--3--3--3--3----|----------------------------|
----------------------------|----------------------------|----------------------------|----------------------------|--5--5--5--5--5--5--5--5----|--1--1--1--1--1--1--1--1----|----------------------------|----------------------------|
----------------------------|----------------------------|----------------------------|----------------------------|----------------------------|--3--3--3--3--3--3--3--3----|--3--3--3--3--3--3--3--3----|----------------------------|
----------------------------|----------------------------|----------------------------|----------------------------|--5--5--5--5--5--5--5--5----|--1--1--1--1--1--1--1--1----|----------------------------|----------------------------|
----------------------------|----------------------------|----|----------------|----------------------------|----------------------------|----|----------------|----------------------------|--3--3--3--3--3--3--3--3----|----|----------------|--3--3--3--3--3--3--3--3----|----------------------------|----|--0--0----------|
----|----------------|-------|-------|-------|-------|-------|----------------|----|----------------|-------|-------|-------|-------|-------|----------------|----|--1--1----------|-------|-------|-------|-------|-------|----------------|----|----------------|-------|-------|-------|-------|-------|--0--0----------|
-------|-------|-------|-------|-------|-------|-------|-------|-------|-------|-------|-------|-------|-------|-------|-------|-------|-------|-------|-------|-------|-------|-------|-------|-------|-------|-------|-------|-------|-------|-------|-------|-------|-------|-------|-------|-------|-------|-------|-------|
----------------------------|----------------------------|----------------------------|----------------------------|--5--5--5--5--5--5--5--5----|--1--1--1--1--1--1--1--1----|----------------------------|----------------------------|
----------------------------|----------------------------|----------------------------|----------------------------|----------------------------|--3--3--3--3--3--3--3--3----|--3--3--3--3--3--3--3--3----|----------------------------|
----------------------------|----------------------------|----------------------------|----------------------------|--5--5--5--5--5--5--5--5----|--1--1--1--1--1--1--1--1----|----------------------------|----------------------------|
----------------------------|----------------------------|----------------------------|----------------------------|----------------------------|--3--3--3--3--3--3--3--3----|--3--3--3--3--3--3--3--3----|----------------------------|
----------------------------|----------------------------|----------------------------|----------------------------|--5--5--5--5--5--5--5--5----|--1--1--1--1--1--1--1--1----|----------------------------|----------------------------|
----------------------------|----------------------------|----------------------------|----------------------------|----------------------------|--3--3--3--3--3--3--3--3----|--3--3--3--3--3--3--3--3----|----------------------------|
----------------------------|----------------------------|----------------------------|----------------------------|--5--5--5--5--5--5--5--5----|--1--1--1--1--1--1--1--1----|----------------------------|----------------------------|
----------------------------|----------------------------|-------|-------|----------------------------|----------------------------|-------|-------|----------------------------|--3--3--3--3--3--3--3--3----|-------|-------|--3--3--3--3--3--3--3--3----|----------------------------|-------|-------|
-------|-------|-------|-------|-------|-------|----------------------------|-------|-------|-------|-------|-------|-------|----------------------------|-------|-------|-------|-------|-------|-------|--5--5--5--5--5--5--5--5----|-------|-------|-------|-------|-------|-------|----------------------------|
----------------------------|----------------------------|----------------------------|----------------------------|--5--5--5--5--5--5--5--5----|--5--5--5--5--5--5--5--5----|----------------------------|----------------------------|
----------------------------|-------|----------------------------|----------------------------|-------|----------------------------|--3--3--3--3----------------|-------|--5--5--5--5--5--5--5--5----|----------------------------|-------|----------------------------|
----------------------------|----------------------------|----------------------------|----------------------------|--1--1--1--1--1--1--1--1----|----------------------------|----------------------------|--3--3--3--3--3--3--3--3----|
----------------------------|----------------------------|----------------------------|----------------------------|--3--3--3--3--3--3--3--3----|--5--5--5--5--5--5--5--5----|----------------------------|----------------------------|
----------------------------|----------------------------|----------------------------|----------------------------|--1--1--1--1--1--1--1--1----|----------------------------|----------------------------|--3--3--3--3--3--3--3--3----|
----------------------------|----------------------------|----------------------------|----------------------------|--3--3--3--3--3--3--3--3----|--5--5--5--5--5--5--5--5----|----------------------------|----------------------------|
----------------------------|----------------------------|----------------------------|----------------------------|--1--1--1--1--1--1--1--1----|----------------------------|----------------------------|--3--3--3--3--3--3--3--3----|
----------------------------|----------------------------|----------------------------|----------------------------|--3--3--3--3--3--3--3--3----|--5--5--5--5--5--5--5--5----|----------------------------|----------------------------|
----------------------------|----------------------------|----------------------------|----------------------------|--1--1--1--1--1--1--1--1----|----------------------------|----------------------------|--3--3--3--3--3--3--3--3----|
----------------------------|-------|-------|-------|-------||----------------------------|-------|-------|-------|-------||--3--3--3--3--3--3--3--3----|-------|-------|-------|-------||----------------------------|-------|-------|-------|-------||
Tap to rate this tab
 
# A B C D E F G H I J K L M N O P Q R S T U V W X Y Z