More versions

Fang Island – Sideswiper tab ver. 2

Chords:

--0----0----0----2--|--5----5----10---3--|--6----4----9----2--|--7----6----11---4--|--0----0----0----0--|--x----x----x----x--|
First Guitar:
-------12------------12-12/14-12-12h14p12-------|-14h15----12---14h15----------------------14-14-|------------------------------------------------|------------------------------------------------|------------------------------------------------|------------------------------------------------|
-------12------------------------------------------------|-14h15----12-12h14-12-10-12/14-12h14p12-10-9-10p9h10-----|---------------------------------------------------------|---------------------------------------------------------|---------------------------------------------------------|---------------------------------------------------------|
-------12------------12-12/14-12-12h14p12-------|-14h15----12---14h15----------------------14-14-|------------------------------------------------|------------------------------------------------|------------------------------------------------|------------------------------------------------|
-------12-----------------------------------------------|-14h15----12-12h14-12-10-12/14-12h14p12-10-9-10p9h10----|--------------------------------------------------------|--------------------------------------------------------|--------------------------------------------------------|--------------------------------------------------------|
---------------------------------------------------------------------------|-9--7h9h10-12-12/14-10--9h10-9h10--9--7h9h10-12-14-15-15s17-15-14-14--/-10-|---------------------------------------------------------------------------|---------------------------------------------------------------------------|---------------------------------------------------------------------------|---------------------------------------------------------------------------|
---------------------------------------------------------------------|-14-15-17-17/19-17-15-14-/-10--9h10-9h10-9h10-9h10-10s12s10-10-9-10--|---------------------------------------------------------------------|---------------------------------------------------------------------|---------------------------------------------------------------------|---------------------------------------------------------------------|
-------12------------12-12/14-12-12h14p12-------|-14h15----12---14h15----------------------14-14-|------------------------------------------------|------------------------------------------------|------------------------------------------------|------------------------------------------------|
-------12---------------------------------------------------------|-14h15----12-12h14-12-10-12/14-12h14p12-10-9-10p9h10--------------|------------------------------------------------------------------|------------------------------------------------------------------|------------------------------------------------------------------|------------------------------------------------------------------|
-------12------------12-12/14-12-12h14p12-------|-14h15----12---14h15----------------------14-14-|------------------------------------------------|------------------------------------------------|------------------------------------------------|------------------------------------------------|
-------12---------------------------------------------------------|-14h15----12-12h14-12-10-12/14-12h14p12-10-9-10-10-10-------------|------------------------------------------------------------------|------------------------------------------------------------------|------------------------------------------------------------------|------------------------------------------------------------------|
---------------------------------------------------------------------------|-9--7h9h10-12-12/14-10--9h10-9h10--9--7h9h10-12-14-15-15s17-15-14-14--/-10-|---------------------------------------------------------------------------|---------------------------------------------------------------------------|---------------------------------------------------------------------------|---------------------------------------------------------------------------|
-----------------------------------------------------------------------|-14-15-17-17/19-17-15-14-/-10--9h10-9h10-9h10-9h10-10s12s10-10-9-10----|-----------------------------------------------------------------------|-----------------------------------------------------------------------|-----------------------------------------------------------------------|-----------------------------------------------------------------------|
-------12------------12-12/14-12-12h14p12-------|-14h15----12---14h15----------------------14-14-|------------------------------------------------|------------------------------------------------|------------------------------------------------|------------------------------------------------|
-------12---------------------------------------------------------|-14h15----12-12h14-12-10-12s14-12-10-12s14-12-10-10---------------|------------------------------------------------------------------|------------------------------------------------------------------|------------------------------------------------------------------|------------------------------------------------------------------|
-------12------------12-12/14-12------------------------------------------|-14h15----12---14h15-------------15-14-14~~~~~~~~~~~~~~~~~~--14h15p14p12--|--------------------------------------------------------------------------|--------------------------------------------------------------------------|--------------------------------------------------------------------------|--------------------------------------------------------------------------|
-17*--16*--12*--17*--16*--12*--17*--16*--17*------21-19-19-17-17-16-16-17-17-|-----------------------------------------------------------------------------|-----------------------------------------------------------------------------|-----------------------------------------------------------------------------|-----------------------------------------------------------------------------|-----------------------------------------------------------------------------|
Second Guitar:
-----------------------------------------|-10-9--7h9h10-12-12/14-10--9h10-9h10-/12-|-----------------------------------------|-----------------------------------------|-----------------------------------------|-----------------------------------------|
-------------------------------------------------------------------------|-12-14-15-14-12-10--9h10-9h10---------7h9h10-12-12/14-12-----------------|------------------------------9h11p9-------------------------------------|-------------------------------------------------------------------------|-------------------------------------------------------------------------|-------------------------------------------------------------------------|
-----------------------------------------------------------------|-9h10-9h10-/12-12-12-x-x-12h14-12h14-12h14-12h14-15-15p14p12h14--|-----------------------------------------------------------------|-----------------------------------------------------------------|-----------------------------------------------------------------|-----------------------------------------------------------------|
-------12------------12-12/14-12-12h14p12-------|-14h15----12---14h15----------------------14-14-|------------------------------------------------|------------------------------------------------|------------------------------------------------|------------------------------------------------|
-------12---------------------------------------------------------|-14h15----12-12h14-12-10-12-14-12h14p12p10--9-10p9h10-------------|------------------------------------------------------------------|------------------------------------------------------------------|------------------------------------------------------------------|------------------------------------------------------------------|
-------12------------12-12/14-12------------------|-14h15----12---14h15--------------12h14h12-10-10--|--------------------------------------------------|--------------------------------------------------|--------------------------------------------------|--------------------------------------------------|
------12-------------------------------------------------------|14h15----12-12h14-12-10-12-14-12-10-12h14p12p10h12h14p12p10-10-|---------------------------------------------------------------|---------------------------------------------------------------|---------------------------------------------------------------|---------------------------------------------------------------|
--------------------------------------------------------|-9--7h9h10-12-12/14-10--9h10-9h10-/12-12-14-15-14-12-10-|--------------------------------------------------------|--------------------------------------------------------|--------------------------------------------------------|--------------------------------------------------------|
---------------------------------------------------------|-9h10-9h10-10/17-17-7h9h10-12-12/14-12-------------------|---------------------------------------------------------|---------------------------------------------------------|---------------------------------------------------------|---------------------------------------------------------|
-----------------------------------------------------------------|-9h10-9h10-/12-12-12-x-x-12h14-12h14-12h14-12h14-15-15p14p12h14--|-----------------------------------------------------------------|-----------------------------------------------------------------|-----------------------------------------------------------------|-----------------------------------------------------------------|
-------12------------12-12/14-12-----------------|-14h15----12---14h15--------------12h14h12-10-10-|-------------------------------------------------|-------------------------------------------------|-------------------------------------------------|-------------------------------------------------|
-------12-------------------------------------------------------|-14h15----12-12h14-12-10-15s17-15-14-15s17-15-14-14-------------|----------------------------------------------------------------|----------------------------------------------------------------|----------------------------------------------------------------|----------------------------------------------------------------|
-------12------------12-12/17-16-16h17p16-----17-19-21--|-14-15----12---14h15----------------------17------------|--------------------------------------------------------|--------------------------------------------------------|--------------------------------------------------------|--------------------------------------------------------|
-----17-19-21-22-21-19-17-17-------------------------|-----------------------------------------------------|-----------------------------------------------------|-----------------------------------------------------|-----------------------------------------------------|-----------------------------------------------------|
-17*--16*--12*--17*--16*--12*--17*--16*--21*--17*----|-----------------------------------------------------|-----------------------------------------------------|-----------------------------------------------------|-----------------------------------------------------|-----------------------------------------------------|
Epic solo. Enjoy, Remax.
Please rate this tab:
x1.0