Fear Factory - Final Exit tab

"Final Exit" by Fear Factory
Track 10 from the CD "Mechanize"

Tabbed by: Brenton Seifert
bseifertguitar@gmail.com
myspace.com/breathtakerx

7-String Guitar tuned a Whole Step Down (A D G C F A D)

D|-----------------------------------------------------|A|-------0------------0------------0------------0------|F|---0-----0------0-----0------0-----0------0-----0----|C|---------------------------------------------------0-|G|-3---3--------3---3------3---------------------------|D|---------------------------3---3------3-2---2--------|A|-----------------------------------------------------|
|----------------------------------------------------------||-------0------------0--------------0---------------0------||---0-----0------0-----0-------0------0--------0------0----||--------------------------------------------------------0-||-3---3--------3---3------3/10---10------10/12---12--------||----------------------------------------------------------||----------------------------------------------------------|
|---------------------------------------------------||---------------------------------------------------||---------------------------------------------------||---------------------------------------------------||---------------------------------------------------||---------------------------------------------------||-1-1-1--1--1--1--1--1-1-1--1--1--1--1--1-1-1--1--1-|
|---------------------------------------------------||---------------------------------------------------||---------------------------------------------------||---------------------------------------------------||---------------------------------------------------||---------------------------------------------------||-1-1-1--1--1--1--1--1-1-1--1--1--1--1--1-1-1--1--1-|
|---------------------------------------------------||---------------------------------------------------||---------------------------------------------------||---------------------------------------------------||---------------------------------------------------||---------------------------------------------------||-8-8-8--8--8--8--8--8-8-8--8--8--8--8--8-8-8--8--8-|
|---------------------------------------------------||---------------------------------------------------||---------------------------------------------------||---------------------------------------------------||---------------------------------------------------||---------------------------------------------------||-7-7-7--7--7--7--7--7-7-7--7--7--7--7--3-3-3--3--3-|
(2nd ending)|----------------------------------------------------------------------||----------------------------------------------------------------------||----------------------------------------------------------------------||----------------------------------------------------------------------||----------------------------------------------------------------------||----------------------------------------------------------------------||-10-10-10--10--10--10--10--10-10-10--10--10--10--10--10-10-10--10--10-|
|-----------------------------------------------------||-------0------------0------------0------------0------||---0-----0------0-----0------0-----0------0-----0----||-----------------------------------------------------||-3---3--------3---3------3---------------------------||---------------------------3---3------3-2---2--------||---------------------------------------------------3-|
|----------------------------------------------------||-------0------------0------------0-----------0------||---0-----0------0-----0------0-----0-----0-----0----||----------------------------------------------------||-3---3--------3---3------3--------------------------||---------------------------3---3-----3-5---5--------||--------------------------------------------------3-|
|-----------------------------------------------------------------||-----------------------------------------------------------------||-----------------------------------------------------------------||-----------------------------------------------------------------||-3-3-3-3-3-3-3-3-3-3-3-3-3-3-3-3-3-3-3-3-3-3-3-3-3-3-3-3-3-3-3-3-||-3-3-3-3-3-3-3-3-3-3-3-3-3-3-3-3-3-3-3-3-3-3-3-3-3-3-3-3-3-3-3-3-||-1-1-1-1-1-1-1-1-1-1-1-1-1-1-1-1-1-1-1-1-1-1-1-1-1-1-1-1-1-1-1-1-|
|-----------------------------------------------------------------||-----------------------------------------------------------------||-----------------------------------------------------------------||-5-5-5-5-5-5-5-5-5-5-5-5-5-5-5-5-4-4-4-4-4-4-4-4-4-4-4-4---------||-5-5-5-5-5-5-5-5-5-5-5-5-5-5-5-5-4-4-4-4-4-4-4-4-4-4-4-4-5-5-5-5-||-3-3-3-3-3-3-3-3-3-3-3-3-3-3-3-3-2-2-2-2-2-2-2-2-2-2-2-2-5-5-5-5-||---------------------------------------------------------3-3-3-3-|
|-----------------------------------------------------------------||-----------------------------------------------------------------||-----------------------------------------------------------------||-----------------------------------------------------------------||-3-3-3-3-3-3-3-3-3-3-3-3-3-3-3-3-3-3-3-3-3-3-3-3-3-3-3-3-3-3-3-3-||-3-3-3-3-3-3-3-3-3-3-3-3-3-3-3-3-3-3-3-3-3-3-3-3-3-3-3-3-3-3-3-3-||-1-1-1-1-1-1-1-1-1-1-1-1-1-1-1-1-1-1-1-1-1-1-1-1-1-1-1-1-1-1-1-1-|
|-----------------------------------------------------------------||-----------------------------------------------------------------||-----------------------------------------------------------------||-5-5-5-5-5-5-5-5-5-5-5-5-5-5-5-5-7-7-7-7-7-7-7-7-7-7-7-7---------||-5-5-5-5-5-5-5-5-5-5-5-5-5-5-5-5-7-7-7-7-7-7-7-7-7-7-7-7-5-5-5-5-||-3-3-3-3-3-3-3-3-3-3-3-3-3-3-3-3-5-5-5-5-5-5-5-5-5-5-5-5-5-5-5-5-||---------------------------------------------------------3-3-3-3-|
|---------------------------------------------------||---------------------------------------------------||---------------------------------------------------||---------------------------------------------------||---------------------------------------------------||---------------------------------------------------||-1-1-1--1--1--1--1--1-1-1--1--1--1--1--1-1-1--1--1-|
|------------------------------------------||------------------------------------------||------------------------------------------||------------------------------------------||------------------------------------------||------------------------------------------||-1-1-1--1--1--1--1--1-1-1--1--1--1--1---1-|
(2:41)|----------------------------------------------------------||----------------------------------------------------------||----------------------------------------------------------||----------------------------------------------------------||----------------------------------------------------------||----------------------------------------------------------||-1-1-1----1-1-1----1-1-1--1-1-1--1-1-1---1-1-1-1--1-1-1-1-|
|----------------------------------------------------------||----------------------------------------------------------||----------------------------------------------------------||----------------------------------------------------------||----------------------------------------------------------||----------------------------------------------------------||-1-1-1----1-1-1----1-1-1--1-1-1--1-1-1---1-1-1-1--1-1-1-1-|
|----------------------------------------------------------||----------------------------------------------------------||----------------------------------------------------------||----------------------------------------------------------||----------------------------------------------------------||----------------------------------------------------------||-8-8-8----8-8-8----8-8-8--8-8-8--8-8-8---8-8-8-8--8-8-8-8-|
|----------------------------------------------------------||----------------------------------------------------------||----------------------------------------------------------||----------------------------------------------------------||----------------------------------------------------------||----------------------------------------------------------||-7-7-7----7-7-7----7-7-7--7-7-7--7-7-7---3-3-3-3--3-3-3-3-|
(2nd Ending)|---------------------------------------------------------------------------------||---------------------------------------------------------------------------------||---------------------------------------------------------------------------------||---------------------------------------------------------------------------------||---------------------------------------------------------------------------------||---------------------------------------------------------------------------------||-10-10-10----10-10-10----10-10-10--10-10-10--10-10-10---10-10-10-10--10-10-10-10-|
(Last Variation)|----------------------------------------------------------------||----------------------------------------------------------------||----------------------------------------------------------------||----------------------------------------------------------------||----------------------------------------------------------------||----------------------------------------------------------------||-10-10-10----10-10-10----10-10-10--10-10-10--10-10-10--10-10-10-|
************************************ | / slide up | \ slide down | h hammer-on | p pull-off | ~ vibrato | + harmonic | x Mute note | b Bend | pb Pre-bend | br Bend release | pbr Pre-bend release | brb Bend release bend ************************************
Tap to rate this tab
 
# A B C D E F G H I J K L M N O P Q R S T U V W X Y Z