Fear Factory - Industrial Discipline tab

"Industrial Discipline" by Fear Factory
Track 2 from the CD "Mechanize"

Tabbed by: Brenton Seifert
bseifertguitar@gmail.com
myspace.com/breathtakerx

7-String Guitar tuned a Whole Step Down (A D G C F A D)

D|-----------------------------------------|A|-----------------------------------------|F|-----------------------------------------|C|-----------------------------------------|G|-----------------------------------------|D|-----------------------------------------|A|-6---6---6---3-3-5-5-6---6---6---3-3-5-5-|
....... .......(1st Ending)|------------------------------------------------||------------------------------------------------||------------------------------------------------||------------------------------------------------||------------------------------------------------||------------------------------------------------||-6---6---6---3-3-5-5-6-6-4-4-4--4--6-6-4-4-4--4-|
................. . ......... .(Addition)|----------------------------||----------------------------||----------------------------||----------------------------||----------------------------||----------------------------||-6-6-4-4-4--4--6-6-4-4-4--4-| ......... . ......... .
(0:38, 0:47 Endings)|-----------------||-----------------||-----------------||-----------------||-----------------||-----------------||-5-5-5-5-5-5-5-5-| ...............
|-----------------------------------------------------||-----------------------------------------------------||-----------------------------------------------------||-----------------------------------------------------||-9------------7-------------------------6------------||-9------------5----5-5-5-5-7------------4----4-4-4-4-||-7----7-7-7-7--------------5----5-5-5-5--------------| ....... ....... ....... .......
|----------------------------------------------------------||----------------------------------------------------------||----------------------------------------------------------||----------------------------------------------------------||--------------7----7--------------------------------------||-9------------5----5------4-4-4-4-4-4-4-4-4-4-4-4-4-4-4-4-||-7----7-7-7-7---------------------------------------------|
....... ...............................(cont.)|---------------------------------||---------------------------------||---------------------------------||---------------------------------||---------------------------------||-4-4-4-4-4-4-4-4-4-4-4-4-4-4-4-4-||---------------------------------| ...............................
|----------------------------------------------||----------------------------------------------||----------------------------------------------||----------------------------------------------||----------------------------------------------||----------------------------------------------||-7-7-7---5-5-5---8-8-8--8-8-8---4-4-4---7-7-7-| ..... ..... ..... ..... ..... .....
|---------------------------------------------||---------------------------------------------||---------------------------------------------||---------------------------------------------||---------------------------------------------||-9----7---10---10----------------------------||-7----5----8----8----8-8-8-8-8-8-8-8-8-8-8-8-| .......................
|---------------------------------------------||---------------------------------------------||---------------------------------------------||---------------------------------------------||---------------------------------------------||-9----7---10----6----------------------------||-7----5----8----4----4-4-4-4-4-4-4-4-4-4-4-4-| .......................
|---------------------------------------------||---------------------------------------------||---------------------------------------------||---------------------------------------------||---------------------------------------------||-9-----7----10--10---------------------------||-7-0-0-5-0-0-8-0-8-0-8-8-8-8-8-8-8-8-8-8-8-8-| ... ... . .........................
|---------------------------------------------||---------------------------------------------||---------------------------------------------||---------------------------------------------||---------------------------------------------||-9-----7----10---6---------------------------||-7-0-0-5-0-0-8-0-4-0-4-4-4-4-4-4-4-4-4-4-4-4-| ... ... . .........................
|---------------------------------||---------------------------------||---------------------------------||---------------------------------||---------------------------------||-------------------------4-4-4-4-||-7-7-7-7-7-7-7-7-7-7-7-7---------| ...............................
|---------------------------------||---------------------------------||---------------------------------||---------------------------------||---------------------------------||-5-5-5-5-5-5-5-5-5-5-5-5-5-5-5-5-||---------------------------------| ...............................
|---------------------------------||---------------------------------||---------------------------------||---------------------------------||---------------------------------||-------------------------5-5-5-5-||-5-5-5-5-5-5-5-5-5-5-5-5---------| ...............................
|---------------------------------||---------------------------------||---------------------------------||---------------------------------||---------------------------------||-4-4-4-4-4-4-4-4-4-4-4-4-4-4-4-4-||---------------------------------| ...............................
|---------------------------------||---------------------------------||---------------------------------||---------------------------------||---------------------------------||-------------------------4-4-4-4-||-7-7-7-7-7-7-7-7-7-7-7-7---------| ...............................
|---------------------------------||---------------------------------||---------------------------------||---------------------------------||---------------------------------||-5-5-5-5-5-5-5-5-5-5-5-5-5-------||---------------------------------| .........................
|---------------------------------||---------------------------------||---------------------------------||---------------------------------||---------------------------------||-4-4-4-4-4-4-4-4-4-4-4-4-4-4-4-4-||---------------------------------| ...............................
|---------------------------------||---------------------------------||---------------------------------||---------------------------------||---------------------------------||-4-4-4-4-4-4-4-4-4-4-4-4-4-4-4-4-||---------------------------------| ...............................
(1st Ending)|------------------|-------------0----||----0--------0----|----0-----------0-||------------------|------------------||------------------|------------------||------------------|------------------||----------5-----5-|----------4-------||-7-----7----------|-5-----5----------|
(2nd Ending)|---------------------------------||---------------------------------||---------------------------------||---------------------------------||---------------------------------||-4-4-4-4-4-4-4-4-4-4-4-4-4-4-4-4-||---------------------------------| ...............................
|---------------------------------||---------------------------------||---------------------------------||---------------------------------||---------------------------------||-4-4-4-4-4-4-4-4-4-4-4-4-4-4-4-4-||---------------------------------| ...............................
************************************ | / slide up | \ slide down | h hammer-on | p pull-off | ~ vibrato | + harmonic | x Mute note | b Bend | pb Pre-bend | br Bend release | pbr Pre-bend release | brb Bend release bend ************************************
Tap to rate this tab
 
# A B C D E F G H I J K L M N O P Q R S T U V W X Y Z