Fear Factory - Oxidizer tab

"Oxidizer" by Fear Factory
Track 6 from the CD "Mechanize"

Tabbed by: Brenton Seifert
bseifertguitar@gmail.com
myspace.com/breathtakerx

7-String Guitar tuned a Whole Step Down (A D G C F A D)

D|------------------------------------------------|A|------------------------------------------------|F|------------------------------------------------|C|------------------------------------------------|G|------------------------------------------------|D|------------------------------------------------|A|-3-3-3--3--2-2-2--2--2----3-3-3--3--2-2-2--2--2-|
|--------------------------------------------------||--------------------------------------------------||--------------------------------------------------||--------------------------------------------------||--------------------------------------------------||--------------------------------------------------||-3-3-3--3--2-2-2--2--6-6-6--6--5-5-5--5--3-3-3--2-|
|--------------------------||--------------------------||--------------------------||--------------------------||--------------------------||-5----4----8----7----5--4-||-3----2----6----5----3--2-|
|------------------------------------------------------||------------------------------------------------------||------------------------------------------------------||------------------------------------------------------||------------------------------------------------------||------------------------------------------------------||-5-5-5--5--4-4-4--4--4-4-4--5-5-5--5--4-4-4--4--4-4-4-|
|------------------------------------------------------||------------------------------------------------------||------------------------------------------------------||------------------------------------------------------||------------------------------------------------------||------------------------------------------------------||-5-5-5--5--4-4-4--4--8-8-8--8--7-7-7--7--5-5-5--4-4-4-|
|----------------------------------------------||----------------------------------------------||----------------------------------------------||----------------------------------------------||-----------------------------5----------------||-----------------------------3----5---5--6--7-||-2-2-2-2-2-2-2-2-2-2-2-2-2-2------3---3--4--5-|
|----------------------------------------------------------||----------------------------------------------------------||----------------------------------------------------------||----------------------------------------------------------||----------------------------------------------------------||----------------------------------------------------------||-5-5-5-5-5-5-4-4-4-4-4-4-4------5-5-5-5-5-5-4-4-4-4-4-4-4-|
|-----------------------------------------------------------||-----------------------------------------------------------||-----------------------------------------------------------||-----------------------------------------------------------||-----------------------------------------------------------||-----------------------------------------------------------||-5-5-5-5-5-5-4-4-4-4-4-4-8-8-8-8-8-8-7-7-7-7-7-7-5-5-5-5-4-|
|------------------------------------------||------------------------------------------||------------------------------------------||------------------------------------------||------------------------------------------||-------------------------10----9----6-6-6-||-5-5-5-5-5-5-4-4-4-4-4-4--8----7----4-4-4-|
|--------------------------------------------||--------------------------------------------||--------------------------------------------||--------------------------------------------||-5-7-8-7---------------------5-7-8-7--------||----------0--0--0-0-0--0--0-----------0-0-0-||--------------------------------------------|
|--------------------------------------------------||--------------------------------------------------||--------------------------------------------------||--------------------------------------------------||-7-8-10-8-----------------------------------------||--------------------------------------------------||-----------6--6--6-6-6--6--6-6-6--6--6-6-6--6-6-6-|
(1:41)|--------------------------------------------------||--------------------------------------------------||--------------------------------------------------||--------------------------------------------------||--------------------------------------------------||--------------------------------------------------||-6-6-6--6--6-6-6--6--6-6-6--6--6-6-6--6--6-6-6--6-|
(3:12)|----------------------------------------------------||----------------------------------------------------||----------------------------------------------------||----------------------------------------------------||----------------------------------------------------||-5--7--8--7----------------5--7--8--7---------------||-3--5--6--5----5--5-5-5-5--3--5--6--5----5--5-5-5-5-|
|--------------------------------------------------------||--------------------------------------------------------||--------------------------------------------------------||--------------------------------------------------------||--------------------------------------------------------||-7--8-10--8---------------------------------------------||-5--6--8--6--6--6-6-6-6-6-6-6-6-6-6-6-6-6-6-6-6-6-6-6-6-|
|-----------------------------------------------------------||-----------------------------------------------------------||-----------------------------------------------------------||-----------------------------------------------------------||-----------------------------------------------------------||-----------------------------------------------------------||-6-6-6-6-6-6-6-6-6-6-6-6-6-6-6-6-6-6-6-6-6-6-6-6-6-6-6-6-6-|
************************************ | / slide up | \ slide down | h hammer-on | p pull-off | ~ vibrato | + harmonic | x Mute note | b Bend | pb Pre-bend | br Bend release | pbr Pre-bend release | brb Bend release bend ************************************
Tap to rate this tab
 
# A B C D E F G H I J K L M N O P Q R S T U V W X Y Z