Fear Factory - Invisible Wounds tab

 fear factory
 'invisible wounds (the suture mix)'
 resident evil soundtrack
 tabbed by: i'm not o-fucking-kay! (i_am_not_ok@inbox.ru)
 tuning: standard

 this song from 'resident evil' movie ost. but ut's remixed.
 i've played it on standard EADGBe tuning on 6-string guitar
 and in my (intoxicated) mind it was correct. but i know
 that's fear factory's guitarists have 7-string ibanez...
 so check it:

 // intro (both 2 guitars)


 _ guitar 1 (use chorus pedal):

-----------------------------------------| -----------------------------------------| -----------------------------------------| -----------------------------------------| -----------------------------------------| -----------------------------------------| -3--3-3--3--3--3--3---1--1-1--1--1--1--1-|
------------------------------------------| ------------------------------------------| ------------------------------------------| ------------------------------------------| ------------------------------------------| ------------------------------------------| -6--6-6--6--6--6--6-5-6---8--8-8--8--8--8-|
_ guitar 2 (use chorus pedal):
---------------------------------| ---------------------------------| ---------------------------------| ---------------------------------| -3--3--3--3/5-5---3--3--3--3/5-5-| ---------------------------------| ---------------------------------|
--------------------------| --------------------------| --------------------------| --------------------------| -6--6--6---8--10--8--10-8-| --------------------------| --------------------------|
_ 2 guitars (use distortion pedal):
-------------------------------------------------------| -------------------------------------------------------| -------------------------------------------------------| -------------------------------------------------------| -5--5-5-5--5-5--5-5--5/7-7---3--3-3-3--3-3--3-3--3/7-7-| -3--3-3-3--3-3--3-3--3/5-5---1--1-1-1--1-1--1-1--1/5-5-| -3--3-3-3--3-3--3-3--3/5-5---1--1-1-1--1-1--1-1--1/5-5-|
-----------------------------------------------------| -----------------------------------------------------| -----------------------------------------------------| -----------------------------------------------------| -8--8-8-8--8-8--8-8--8\7/8---10-10-10-10-10-10-10-10-| -6--6-6-6--6-6--6-6--6\5/6----8--8--8--8--8--8--8--8-| -6--6-6-6--6-6--6-6--6\5/6----8--8--8--8--8--8--8--8-|
// verse 1 (both 2 guitar) _ guitar 1 (use chorus pedal):
-----------------------------------------| -----------------------------------------| -----------------------------------------| -----------------------------------------| -----------------------------------------| -----------------------------------------| -3--3-3--3--3--3--3---1--1-1--1--1--1--1-|
------------------------------------------| ------------------------------------------| ------------------------------------------| ------------------------------------------| ------------------------------------------| ------------------------------------------| -6--6-6--6--6--6--6-5-6---8--8-8--8--8--8-|
_ guitar 2 (use chorus pedal):
---------------------------------| ---------------------------------| ---------------------------------| ---------------------------------| -3--3--3--3/5-5---3--3--3--3/5-5-| ---------------------------------| ---------------------------------|
--------------------------| --------------------------| --------------------------| --------------------------| -6--6--6---8--10--8--10-8-| --------------------------| --------------------------|
_ guitar 1 (use chorus pedal):
-----------------------------------------| -----------------------------------------| -----------------------------------------| -----------------------------------------| -----------------------------------------| -----------------------------------------| -3--3-3--3--3--3--3---1--1-1--1--1--1--1-|
------------------------------------------| ------------------------------------------| ------------------------------------------| ------------------------------------------| ------------------------------------------| ------------------------------------------| -6--6-6--6--6--6--6-5-6---8--8-8--8--8--8-|
_ guitar 2 (use chorus pedal):
-------------------------------------| -------------------------------------| -------------------------------------| -------------------------------------| -8--8--8--12h13p8---8--8--8--12h13p8-| -------------------------------------| -------------------------------------|
---------| ---------| ---------| ---------| -6--6--6-| ---------| ---------|
// chorus 1 (both 2 guitars) _ 2 guitars (use distortion pedal):
-------------------------------------------------------| -------------------------------------------------------| -------------------------------------------------------| -------------------------------------------------------| -5--5-5-5--5-5--5-5--5-5-5---3--3-3-3--3-3--3-3--3-3-3-| -3--3-3-3--3-3--3-3--3-3-3---1--1-1-1--1-1--1-1--1-1-1-| -3--3-3-3--3-3--3-3--3-3-3---1--1-1-1--1-1--1-1--1-1-1-|
-----------------------------------------------------| -----------------------------------------------------| -----------------------------------------------------| -----------------------------------------------------| -8--8-8-8--8-8--8-8--8\7/8---10-10-10-10-10-10-10-10-| -6--6-6-6--6-6--6-6--6\5/6----8--8--8--8--8--8--8--8-| -6--6-6-6--6-6--6-6--6\5/6----8--8--8--8--8--8--8--8-|
_ guitar 1 (use distortion pedal):
-------------------------------------------------------------| -------------------------------------------------------------| -------------------------------------------------------------| -------------------------------------------------------------| -5--5-5--5--5--5--5--5--5/7-7---3--3-3--3--3--3--3--3--3/7-7-| -3--3-3--3--3--3--3--3--3/5-5---1--1-1--1--1--1--1--1--1/5-5-| -3--3-3--3--3--3--3--3--3/5-5---1--1-1--1--1--1--1--1--1/5-5-| . . . . . . . .
--------------------------------------------------------| --------------------------------------------------------| --------------------------------------------------------| --------------------------------------------------------| -8--8-8--8--8--8--8--8--8\7/8---10-10-10-10-10-10-10-10-| -6--6-6--6--6--6--6--6--6\5/6----8--8--8--8--8--8--8--8-| -6--6-6--6--6--6--6--6--6\5/6----8--8--8--8--8--8--8--8-| . . . .
_ guitar 2 (use chorus pedal):
-----------------------------| -----------------------------| -----------------------------| -----------------------------| -3--3--3--1-5---3--3--3--1-5-| -----------------------------| -----------------------------|
---------------------------------| ---------------------------------| ---------------------------------| ---------------------------------| -6--5--6--5-6---6--5--6--5-6p5p3-| ---------------------------------| ---------------------------------|
// verse 2 (both 2 guitar) _ guitar 1 (use chorus pedal):
------------------------------------------| ------------------------------------------| ------------------------------------------| ------------------------------------------| ------------------------------------------| ------------------------------------------| -6--6-6--6--6--6--6-5-6---8--8-8--8--8--8-|
_ guitar 2 (use chorus pedal):
--------------------------| --------------------------| --------------------------| --------------------------| -6--6--6---8--10--8--10-8-| --------------------------| --------------------------|
_ guitar 1 (use chorus pedal):
-----------------------------------------| -----------------------------------------| -----------------------------------------| -----------------------------------------| -----------------------------------------| -----------------------------------------| -3--3-3--3--3--3--3---1--1-1--1--1--1--1-|
------------------------------------------| ------------------------------------------| ------------------------------------------| ------------------------------------------| ------------------------------------------| ------------------------------------------| -6--6-6--6--6--6--6-5-6---8--8-8--8--8--8-|
_ guitar 2 (use chorus pedal):
-------------------------------------| -------------------------------------| -------------------------------------| -------------------------------------| -8--8--8--12h13p8---8--8--8--12h13p8-| -------------------------------------| -------------------------------------|
---------| ---------| ---------| ---------| -6--6--6-| ---------| ---------|
// chorus 2 (both 2 guitars) _ 2 guitars (use distortion pedal):
-------------------------------------------------------| -------------------------------------------------------| -------------------------------------------------------| -------------------------------------------------------| -5--5-5-5--5-5--5-5--5-5-5---3--3-3-3--3-3--3-3--3-3-3-| -3--3-3-3--3-3--3-3--3-3-3---1--1-1-1--1-1--1-1--1-1-1-| -3--3-3-3--3-3--3-3--3-3-3---1--1-1-1--1-1--1-1--1-1-1-|
-----------------------------------------------------| -----------------------------------------------------| -----------------------------------------------------| -----------------------------------------------------| -8--8-8-8--8-8--8-8--8\7/8---10-10-10-10-10-10-10-10-| -6--6-6-6--6-6--6-6--6\5/6----8--8--8--8--8--8--8--8-| -6--6-6-6--6-6--6-6--6\5/6----8--8--8--8--8--8--8--8-|
---------------------------------------------------------------| ---------------------------------------------------------------| ---------------------------------------------------------------| ---------------------------------------------------------------| -5--5-5--5--5-5--5--5-5--5/7-7---3--3-3--3--3-3--3--3-3--3/7-7-| -3--3-3--3--3-3--3--3-3--3/5-5---1--1-1--1--1-1--1--1-1--1/5-5-| -3--3-3--3--3-3--3--3-3--3/5-5---1--1-1--1--1-1--1--1-1--1/5-5-| . . . . . . . . . . . .
-------------------------------| -------------------------------| -------------------------------| -------------------------------| -8--8-8--8--8-8--8--8-8--8\7/8-| -6--6-6--6--6-6--6--6-6--6\5/6-| -6--6-6--6--6-6--6--6-6--6\5/6-| . . . . ..
(use flanger and distortion pedals (but i'm sure that this part is making on pc)):
-------------------------------------| -------------------------------------| -------------------------------------| -------------------------------------| -10-10--10-10-10--10-10-10--10-10-10-| --8--8---8--8--8---8--8--8---8--8--8-| --8--8---8--8--8---8--8--8---8--8--8-|
// bridge (both 2 guitar) _ guitar 1 (use chorus pedal):
-----------------------------------------| -----------------------------------------| -----------------------------------------| -----------------------------------------| -----------------------------------------| -----------------------------------------| -3--3-3--3--3--3--3---1--1-1--1--1--1--1-|
------------------------------------------| ------------------------------------------| ------------------------------------------| ------------------------------------------| ------------------------------------------| ------------------------------------------| -6--6-6--6--6--6--6-5-6---8--8-8--8--8--8-|
_ guitar 2 (use chorus pedal):
-----------------------------| -----------------------------| -----------------------------| -----------------------------| -3--3--3--1-5---3--3--3--1-5-| -----------------------------| -----------------------------|
---------------------------------| ---------------------------------| ---------------------------------| ---------------------------------| -6--5--6--5-6---6--5--6--5-6p5p3-| ---------------------------------| ---------------------------------|
_ guitar 1 (use chorus pedal):
-----------------------------------------| -----------------------------------------| -----------------------------------------| -----------------------------------------| -----------------------------------------| -----------------------------------------| -3--3-3--3--3--3--3---1--1-1--1--1--1--1-|
------------------------------------------| ------------------------------------------| ------------------------------------------| ------------------------------------------| ------------------------------------------| ------------------------------------------| -6--6-6--6--6--6--6-5-6---8--8-8--8--8--8-|
_ guitar 2 (use chorus pedal):
-------------------| -------------------| -------------------| -------------------| -8--8--8---8--8--8-| -------------------| -------------------|
---------| ---------| ---------| ---------| -8--8--8-| ---------| ---------|
// chorus 3 (both 2 guitars): _ 2 guitars (use distortion pedal):
-------------------------------------------------------------| -------------------------------------------------------------| -------------------------------------------------------------| -------------------------------------------------------------| -5--5-5--5--5--5--5--5--5/7-7---3--3-3--3--3--3--3--3--3/7-7-| -3--3-3--3--3--3--3--3--3/5-5---1--1-1--1--1--1--1--1--1/5-5-| -3--3-3--3--3--3--3--3--3/5-5---1--1-1--1--1--1--1--1--1/5-5-| . . . . . . . .
--------------------------------------------------------| --------------------------------------------------------| --------------------------------------------------------| --------------------------------------------------------| -8--8-8--8--8--8--8--8--8\7/8---10-10-10-10-10-10-10-10-| -6--6-6--6--6--6--6--6--6\5/6----8--8--8--8--8--8--8--8-| -6--6-6--6--6--6--6--6--6\5/6----8--8--8--8--8--8--8--8-|
_ guitar 1 (use distortion pedal):
-------------------------------------------------------| -------------------------------------------------------| -------------------------------------------------------| -------------------------------------------------------| -5--5-5-5--5-5--5-5--5-5-5---3--3-3-3--3-3--3-3--3-3-3-| -3--3-3-3--3-3--3-3--3-3-3---1--1-1-1--1-1--1-1--1-1-1-| -3--3-3-3--3-3--3-3--3-3-3---1--1-1-1--1-1--1-1--1-1-1-|
-----------------------------------------------------| -----------------------------------------------------| -----------------------------------------------------| -----------------------------------------------------| -8--8-8-8--8-8--8-8--8\7/8---10-10-10-10-10-10-10-10-| -6--6-6-6--6-6--6-6--6\5/6----8--8--8--8--8--8--8--8-| -6--6-6-6--6-6--6-6--6\5/6----8--8--8--8--8--8--8--8-|
_ guitar 2 (use chorus pedal):
-----------------------------| -----------------------------| -----------------------------| -----------------------------| -3--3--3--1-5---3--3--3--1-5-| -----------------------------| -----------------------------|
---------------------------------| ---------------------------------| ---------------------------------| ---------------------------------| -6--5--6--5-6---6--5--6--5-6p5p3-| ---------------------------------| ---------------------------------|
// outro (both 2 guitars) _ 2 guitars (use distortion pedal):
---------------------------------------------------------------| ---------------------------------------------------------------| ---------------------------------------------------------------| ---------------------------------------------------------------| -5--5-5--5--5-5--5--5-5--5/7-7---3--3-3--3--3-3--3--3-3--3/7-7-| -3--3-3--3--3-3--3--3-3--3/5-5---1--1-1--1--1-1--1--1-1--1/5-5-| -3--3-3--3--3-3--3--3-3--3/5-5---1--1-1--1--1-1--1--1-1--1/5-5-| . . . . . . . . . . . .
---------------------------------------------------------| ---------------------------------------------------------| ---------------------------------------------------------| ---------------------------------------------------------| -8--8-8--8--8-8--8--8-8--8\7/8---10-10-10-10-10-10-10-10-| -6--6-6--6--6-6--6--6-6--6\5/6----8--8--8--8--8--8--8--8-| -6--6-6--6--6-6--6--6-6--6\5/6----8--8--8--8--8--8--8--8-| . . . . ..
---------------------------------------------------------------| ---------------------------------------------------------------| ---------------------------------------------------------------| ---------------------------------------------------------------| -5--5-5--5--5-5--5--5-5--5/7-7---3--3-3--3--3-3--3--3-3--3/7-7-| -3--3-3--3--3-3--3--3-3--3/5-5---1--1-1--1--1-1--1--1-1--1/5-5-| -3--3-3--3--3-3--3--3-3--3/5-5---1--1-1--1--1-1--1--1-1--1/5-5-| . . . . . . . . . . . .
-------------------------------| -------------------------------| -------------------------------| -------------------------------| -8--8-8--8--8-8--8--8-8--8-8-8-| -6--6-6--6--6-6--6--6-6--6-6-6-| -6--6-6--6--6-6--6--6-6--6-6-6-| . . . . . .
/ - slide up \ - slide down h - hammer on p - pull off . - palm mute fuck! i've tabbed that shit when i was drunk. that's why i'm not sure for its correct. if u wanna kill me plz mail me :)
Tap to rate this tab
 
# A B C D E F G H I J K L M N O P Q R S T U V W X Y Z