Fear Factory - Descent tab

Artist: Fear Factory
Album: Obsolete
Song: Descent
Tuning: A,E,A,D,F#,B


-Intro-|---2-----2-----2-------2---------2-----2--------------||-----3-----3-----3---3---3---------3-----3------------||------------------------------------------------------||------------------------------------------------------||-------------------0----------------------------------||-2-----4-----5-------------(0)-2-----4-----0----------|*
|---2-----2-----2-------2---------2-----2-----------------------||-----3-----3-----3---3---3---------3-----3---------------------||---------------------------------------------------------------||---------------------------------------------------------------||-------------------0-------------------------0--0-0--0-2--2-2--||-2-----4-----5-------------(0)-2-----4-----0-0--0-0--0-2--2-2--|* * * *
Riff B
|---2-----2-----2-------2---------2-----2-----2-------2----||-----3-----3-----3---3---3---------3-----3-----3---3---3--||----------------------------------------------------------||----------------------------------------------------------||-------------------0--------------------------------------||-2-----4-----5-------------(0)-2-----4-----0-----2--------|*
Riff C Play chord and let it fade into the chorus
|-------------||-------------||-------------||--2----------||--2----------||--2----------|
Riff D
|------------------------------------||------------------------------------||------------------------------------||-2---(4)-4-4-4-4---4-5---(5)/7-7-7--||-2---(4)-4-4-4-4---4-5---(5)/7-7-7--||-2---(4)-4-4-4-4---4-5---(5)/7-7-7--|*
|----------------------------------------||----------------------------------------||----------------------------------------||-----2---(4)-4-4-4-4-------(2)---2-2-2--||-----2---(4)-4-4-4-4--------0----2-2-2--||-(0)-2---(4)-4-4-4-4---(0)--0----2-2-2--|* *
|----------------------------------------||----------------------------------------||----------------------------------------||-----2---(4)-4-4-4-4---4-5---(5)/7-7-7--||-----2---(4)-4-4-4-4---4-5---(5)/7-7-7--||-(0)-2---(4)-4-4-4-4---4-5---(5)/7-7-7--|*
|-------------------------------------------||-------------------------------------------||-------------------------------------------||-----2---(4)-4-4-4-4-----------------------||-----2---(4)-4-4-4-4-----0--0-0--0-2--2-2--||-(0)-2---(4)-4-4-4-4---0-0--0-0--0-2--2-2--|* * * *
Riff E Play chord and then mute it (no sustain)
|-------------||-------------||-------------||--2----------||--2----------||--2----------|
Riff F
|-------------------------------------------------||-------------------------------------------------||-------------------------------------------------||-2--2-2/4-(4)-4-4-4---(4)-5--5--(5)/7-(7)-7-7-7--||-2--2-2/4-(4)-4-4-4---(4)-5--5--(5)/7-(7)-7-7-7--||-2--2-2/4-(4)-4-4-4---(4)-5--5--(5)/7-(7)-7-7-7--|
|----------------------------------------||----------------------------------------||----------------------------------------||-2-----(2)-(2)-----7-7------2-2------2--||-2------0---0------5-5------2-2------2--||-2------0---0------7-7------2-2------2--|
Riff G
Riff under "I am nothing..." etc.|---------------------------------------------------||---------------------------------------------------||---------------------------------------------------||-2---2-----(2)---(2)-----7---7------2-2-----(0)-2--||-2---2------0-----0------5---5------2-2-----(0)-2--||-2---2------0-----0------7---7------2-2-----(0)-2--|
Tap to rate this tab
 
# A B C D E F G H I J K L M N O P Q R S T U V W X Y Z