Fear Factory – Concreto tab

Band/Fear Factory
Song/Concreto
Album/Obsolete

this song is played on 7-string standard tuning. the whole thing except the rings are palm muted.

|------------------------------||------------------------------||------------------------------| the last note alternates 4 and 3|------------------------------||----------------------------4-| x4|----------------------------4-||1111222211113333111122221111--
|----------------------------------------------------------||----------------------------------------------------------||----------------------------------------------------------||----------------------------------------------------------||--------------------------------------------------------4-| x2|3-3-3-3-4-4-4-4-3-3-3-3-5-5-5-5-3-3-3-3-4-4-4-4-3-3-3-3-4-||1-1-1-1-2-2-2-2-1-1-1-1-3-3-3-3-1-1-1-1-2-2-2-2-1-1-1-1---|
|------------------------------||------------------------------||------------------------------||------------------------------||----------------------------4-| x2|----------------------------4-||1111222211113333111122221111--
|----------------------------------------------------------||----------------------------------------------------------||----------------------------------------------------------||----------------------------------------------------------||--------------------------------------------------------4-| x2|3-3-3-3-4-4-4-4-3-3-3-3-5-5-5-5-3-3-3-3-4-4-4-4-3-3-3-3-4-||1-1-1-1-2-2-2-2-1-1-1-1-3-3-3-3-1-1-1-1-2-2-2-2-1-1-1-1---|
|------------------------------||------------------------------||------------------------------||------------------------------||----------------------------4-| x2|----------------------------4-||1111222211113333111122221111--
|-----------------------------||-----------------------------||-----------------------------||-----------------------------||-----------------------------| x2|222----222----222----222-222-||000----000----000----000-000-|
|-----------------------------------||-----------------------------------||-----------------------------------||-----------------------------------||-----------------------------------| x2|222-4545-222-4545-222-4545-222-222-||000-2323-000-2323-000-2323-000-000-|
|-----------------------------||-----------------------------||-----------------------------||-----------------------------||-----------------------------| x4|222----222----222----222-222-||000----000----000----000-000-|
|-----------------------------------||-----------------------------------||-----------------------------------||-----------------------------------||-----------------------------------| x4|222-4545-222-4545-222-4545-222-222-||000-2323-000-2323-000-2323-000-000-|
|-------------------------------------||-------------------------------------||-------------------------------------||-------------------------------------||-----4~~-----3~~-----2~~-----1~~-----| x3|222--4~~222--3~~222--2~~222--1~~-----||000-----000-----000-----000----------|
|--------------------------------||--------------------------------||--------------------------------||--------------------------------||-----4~~-----3~~-----2~~~~~-----| x1|222--4~~222--3~~222--2~~~~~-----||000-----000-----000-------------|
|------------------------------||------------------------------||------------------------------||------------------------------||----------------------------4-| x4|----------------------------4-||1111222211113333111122221111--
|----------------------------------------------------------||----------------------------------------------------------||----------------------------------------------------------||----------------------------------------------------------||--------------------------------------------------------4-| x2|3-3-3-3-4-4-4-4-3-3-3-3-5-5-5-5-3-3-3-3-4-4-4-4-3-3-3-3-4-||1-1-1-1-2-2-2-2-1-1-1-1-3-3-3-3-1-1-1-1-2-2-2-2-1-1-1-1---|
|------------------------------||------------------------------||------------------------------||------------------------------||----------------------------4-| x3|----------------------------4-||1111222211113333111122221111--
|------------------------------------------------||------------------------------------------------||------------------------------------------------||------------------------------------------------||----------------------------4~~~~~~~~~~~~~~-----| x4|----------------------------4~~~~~~~~~~~~~~-----||1111222211113333111122221111--------------------|
thats it.
Please rate this tab:
x1.0