Feared – Euthanasian Bliss tab

Tabbed 27/09/2012 by Hyks

Artist: Feared
Album: Rejects
Song: Euthanasian Bliss


Tuning: Drop Bb/A#

A#, F, A#, Eb, G, C


NOTE: This is not an official tab, this is just my take on what I think
is being played and it might not be 100% but it's atleast 95% correct.
Enjoy learning this masterpiece of a song and most of all, have fun.


Intro riff||-------------||||-------------||||-------------||||-1--0--1/4-1-||||-1--0--1/4-1-||||-1--0--1/4-1-|| . .
Main riff .1||--------------------------------|--------------------------||||--------------------------------|--------------------------||||--------------------------------|--------------------------||||--------------------------------|-----------------0----1-4-||||--------------------------------|-----------------0----1-4-||||-0"--3"--5"--2"--3"--6"--5"--6"-|-0"--3"--5"--2"--0-6--1-4-||
. p . .2||-------------------5*------||||-------------------5*------||||-------------------5*------||||-----------------0-5*-1--4-||||-----------------0----1--4-||||-0"--3"--5"--2"--0----1--4-|| . .
Main riff variation 1.||----------------------------------------|-----------------------5*-----|||----------------------------------------|-----------------------5*-----|||----------------------------------------|-----------------------5*-----|||-000--333--555--222--333--666--555--666-|-000--333--555--222--0-5*-1-4-|||-000--333--555--222--333--666--555--666-|-000--333--555--222--0----1-4-|||-000--333--555--222--333--666--555--666-|-000--333--555--222--0----1-4-|
. . 2.||----------------||||----------------||||----------------||||-6--5--3--2~~~~-||||-6--5--3--2~~~~-||||-6--5--3--2~~~~-|| . . .
Riff 3 1. 3.||-----------------------------|-------------------------------------||||-----------------------------|-------------------------------------||||-----------------------------|-------------------------------------||||-3~~~~-------------4~~~~-1-4-|-3~~~~-------------2~~~~-------------||||-3~~~~-3-3-3-3-3-3-4~~~~-1-4-|-3~~~~-3-3-3-3-3-3-2~~~~-2h3p3-------||||-3~~~~-3-3-3-3-3-3-4~~~~-1-4-|-3~~~~-3-3-3-3-3-3-2~~~~-------5-4-2-||
. . . . . . . . . . . . . 2. 4.||---------------------------------------------||||---------------------------------------------||||---------------------------------------------||||---------------------------------------------||||-------5-----3-----5-----6-----5-----3-------||||-0-0-0---0-0---0-0---0-0---0-0---0-0---0-0-4-|| . . . . . . . . . . . . p
Main riff .1||--------------------------------|-------------------------||||--------------------------------|-------------------------||||--------------------------------|-------------------------||||--------------------------------|-----------------0-6-1-4-||||--------------------------------|-----------------0-6-1-4-||||-0"--3"--5"--2"--3"--6"--5"--6"-|-0"--3"--5"--2"--0-6-1-4-||
.2||-------------------5*--------||||-------------------5*--------||||-------------------5*--------||||-----------------0-5*-1--4-1-||||-----------------0----1--4-1-||||-0"--3"--5"--2"--0----1--4-1-|| . . . .
Chorus 1.||-------------------------------------------------------------------------|||-------------------------------------------------------------------------|||----2-----2-----2-----2-----3-----3-----3-----3-----0-----0-----0-----0--|||-0-----0-----3-----3-----5-----5-----5-----5-----2-----2-----2-----2-----|||-0-----0-----3-----3-----5-----5-----5-----5-----2-----2-----2-----2-----|||-0-----0-----3-----3-----5-----5-----5-----5-----2-----2-----2-----2-----|
|----------------------------|||----------------------------|||----0-----0-----------------|||-1-----1-----1---1--1-1-1-1-|||-1-----1-----1---1--1-1-1-1-|||-1-----1-----1---1--1-1-1-1-||
. . . . . 2.||-------------------------------------------------------------------------|||-------------------------------------------------------------------------|||----2-----2-----2-----2-----3-----3-----3-----3-----2-----2-----2-----2--|||-0-----0-----3-----3-----5-----5-----5-----5-----4-----4-----4-----4-----|||-0-----0-----3-----3-----5-----5-----5-----5-----4-----4-----4-----4-----|||-0-----0-----3-----3-----5-----5-----5-----5-----4-----4-----4-----4-----|
|-------------------------------|||-------------------------------|||----2-----2-----2--------------|||-3-----3-----3-----3---3-3-3-3-|||-3-----3-----3-----3---3-3-3-3-|||-3-----3-----3-----3---3-3-3-3-||
Transition back into Main riff||--------||||--------||||--------||||--------||||--------||||-6~~~~~-|| p
Main riff, second repeat||-------------------------------|-------------------5*------||||-------------------------------|-------------------5*------||||-------------------------------|-------------------5*------||||-------------------------------|-----------------0-5*-1--4-||||-------------------------------|-----------------0----1--4-||||0"--3"--5"--2"--3"--6"--5"--6"-|-0"--3"--5"--2"--0----1--4-|| . .
Main riff variation 1.||----------------------------------------|-----------------------5*-----|||----------------------------------------|-----------------------5*-----|||----------------------------------------|-----------------------5*-----|||-000--333--555--222--333--666--555--666-|-000--333--555--222--0-5*-1-4-|||-000--333--555--222--333--666--555--666-|-000--333--555--222--0----1-4-|||-000--333--555--222--333--666--555--666-|-000--333--555--222--0----1-4-|
. . 2.||------------||||------------||||------------||||-6--5--3--2-||||-6--5--3--2-||||-6--5--3--2-|| . . .
Riff 3 1. 3.||-----------------------------|-------------------------------------||||-----------------------------|-------------------------------------||||-----------------------------|-------------------------------------||||-3~~~~-------------4~~~~-1-4-|-3~~~~-------------2~~~~-------------||||-3~~~~-3-3-3-3-3-3-4~~~~-1-4-|-3~~~~-3-3-3-3-3-3-2~~~~-2h3p3-------||||-3~~~~-3-3-3-3-3-3-4~~~~-1-4-|-3~~~~-3-3-3-3-3-3-2~~~~-------5-4-2-||
. . . . . . . . . . . . . 2. 4.||---------------------------------------------||||---------------------------------------------||||---------------------------------------------||||---------------------------------------------||||-------5-----3-----5-----6-----5-----3-------||||-0-0-0---0-0---0-0---0-0---0-0---0-0---0-0-4-|| . . . . . . . . . . . . p
Chorus 1.||-------------------------------------------------------------------------|||-------------------------------------------------------------------------|||----2-----2-----2-----2-----3-----3-----3-----3-----0-----0-----0-----0--|||-0-----0-----3-----3-----5-----5-----5-----5-----2-----2-----2-----2-----|||-0-----0-----3-----3-----5-----5-----5-----5-----2-----2-----2-----2-----|||-0-----0-----3-----3-----5-----5-----5-----5-----2-----2-----2-----2-----|
|----------------------------|||----------------------------|||----0-----0-----------------|||-1-----1-----1---1--1-1-1-1-|||-1-----1-----1---1--1-1-1-1-|||-1-----1-----1---1--1-1-1-1-||
. . . . . 2.||-------------------------------------------------------------------------|||-------------------------------------------------------------------------|||----2-----2-----2-----2-----3-----3-----3-----3-----2-----2-----2-----2--|||-0-----0-----3-----3-----5-----5-----5-----5-----4-----4-----4-----4-----|||-0-----0-----3-----3-----5-----5-----5-----5-----4-----4-----4-----4-----|||-0-----0-----3-----3-----5-----5-----5-----5-----4-----4-----4-----4-----|
|-------------------------------|||-------------------------------|||----2-----2-----2--------------|||-3-----3-----3-----3---3-3-3-3-|||-3-----3-----3-----3---3-3-3-3-|||-3-----3-----3-----3---3-3-3-3-||
Riff 5||-------------------------------------------------|||-------------------------------------------------|||-------------------------------------------------|||------------5----------------------------5-----8-|||------0--0--3--0--0--0-------0--0--0--0--3--0--6-|||-653--0--0-----0--0--0--653--0--0--0--0-----0----| ... . . . . . ... . . .
1.|---------------------------------------||---------------------------------------||---------------------------------------||------------5--------------------------||------0--0--3--0--0--0--5"--3"--6"-----||-653--0--0-----0--0--0--------------4"-| ... . . . . .
2.|----------------------------------------||----------------------------------------||----------------------------------------||------------5-----------4-4-4-4-4-4-4-4-||------0--0--3--0--0--0--4-4-4-4-4-4-4-4-||-653--0--0-----0--0--0--4-4-4-4-4-4-4-4-| ... . . . . . . . . . . . . .
Riff 5 variation
1.||-------------|---------------------||||-------------|---------------------||||-------------|---------------------||||-6-5-3-0-5-0-|-5-6-5-3-1-0-0-5-0-8-||||-6-5-3-0-3-0-|-5-6-5-3-1-0-0-3-0-6-||||-6-5-3-0---0-|-5-6-5-3-1-0-0---0---||
2.||-----------------||||-----------------||||-----------------||||-5-6-------------||||-5-6-5"-3"-6"----||||-5-6----------4"-||
Solo rythm section
1.||----------------------------------|-----------------------------------|||----------------------------------|-----------------------------------|||----------------------------------|-----------------------------------|||-8~~~--------8~~~-------8~~~------|-7~~~--------7~~~--------7~~~------|||-6~~~-666666-6~~~-66666-6~~~-6666-|-5~~~-555555-5~~~-555555-5~~~-5555-|||-6~~~-666666-6~~~-66666-6~~~-6666-|-5~~~-555555-5~~~-555555-5~~~-5555-| ...... ..... .... ...... ...... ....
|----------------------------------|-----------------------------------|||----------------------------------|-----------------------------------|||----------------------------------|-----------------------------------|||-8~~~--------8~~~-------8~~~------|-2~~~--------2~~~--------2~~~------|||-6~~~-666666-6~~~-66666-6~~~-6666-|-2~~~-222222-2~~~-222222-2~~~-2222-|||-6~~~-666666-6~~~-66666-6~~~-6666-|-2~~~-222222-2~~~-222222-2~~~-2222-|| ...... ..... .... ...... ...... ....
2.||----------------------------------|-----------------------------------|||----------------------------------|-----------------------------------|||----------------------------------|-----------------------------------|||-8~~~--------8~~~-------8~~~------|-7~~~--------7~~~--------7~~~------|||-6~~~-666666-6~~~-66666-6~~~-6666-|-5~~~-555555-5~~~-555555-5~~~-5555-|||-6~~~-666666-6~~~-66666-6~~~-6666-|-5~~~-555555-5~~~-555555-5~~~-5555-| ...... ..... .... ...... ...... ....
|----------------------------------|-----------------------------------|||----------------------------------|-----------------------------------|||----------------------------------|-----------------------------------|||-8~~~--------8~~~-------8~~~------|-9~~~--------9~~~--------9~~~------|||-6~~~-666666-6~~~-66666-6~~~-6666-|-7~~~-777777-7~~~-777777-7~~~-7777-|||-6~~~-666666-6~~~-66666-6~~~-6666-|-7~~~-777777-7~~~-777777-7~~~-7777-|| ...... ..... .... ...... ...... ....
Chorus 1.||-------------------------------------------------------------------------|||-------------------------------------------------------------------------|||----2-----2-----2-----2-----3-----3-----3-----3-----0-----0-----0-----0--|||-0-----0-----3-----3-----5-----5-----5-----5-----2-----2-----2-----2-----|||-0-----0-----3-----3-----5-----5-----5-----5-----2-----2-----2-----2-----|||-0-----0-----3-----3-----5-----5-----5-----5-----2-----2-----2-----2-----|
|----------------------------|||----------------------------|||----0-----0-----------------|||-1-----1-----1---1--1-1-1-1-|||-1-----1-----1---1--1-1-1-1-|||-1-----1-----1---1--1-1-1-1-||
. . . . . 2.||-------------------------------------------------------------------------|||-------------------------------------------------------------------------|||----2-----2-----2-----2-----3-----3-----3-----3-----2-----2-----2-----2--|||-0-----0-----3-----3-----5-----5-----5-----5-----4-----4-----4-----4-----|||-0-----0-----3-----3-----5-----5-----5-----5-----4-----4-----4-----4-----|||-0-----0-----3-----3-----5-----5-----5-----5-----4-----4-----4-----4-----|
|-------------------------------|||-------------------------------|||----2-----2-----2--------------|||-3-----3-----3-----3---3-3-3-3-|||-3-----3-----3-----3---3-3-3-3-|||-3-----3-----3-----3---3-3-3-3-||
Riff 5 second variation (Not entirely sure if this is correct)
1.||-------------|---------------------||||-------------|---------------------||||-------------|---------------------||||-6-5-3-0-5-0-|-5-6-5-3-1-0-0-5-0-8-||||-6-5-3-0-3-0-|-5-6-5-3-1-0-0-3-0-6-||||-6-5-3-0---0-|-5-6-5-3-1-0-0---0---||
. . . . . . . . . 2.||-----------------||||-----------------||||-----------------||||-5-6-------------||||-5-6-5"-3"-6"----||||-5-6----------4"-||
Outro||------||||------||||------||||-1--0-||||-1--0-||||-1--0-|| .
Legend: . - Palm mute " - Tremolo picking p - Pinch harmonic 1./2. - On which playthrough of the riff you play that tail/part/ending h & p - Hammer-on & Pull-off * - Natural harmonic ~ - Hold note
Please rate this tab:
x1.0