Federico Moreno Torroba – Siete Piezas - 6 Chisperada tab

SIETE PIEZAS DE ALBUM: VI. CHISPERADA
As recorded by Federico Moreno Torroba

Music by Federico Moreno Torroba

|-----0-----0-|-----------0-|-----0-----0-||---1-----0---|-----3-----0-|---1-----0---||---2-----0---|---2-------1-|---2-----0---||---2---------|---3---------|---2---------||-0-----------|---------2---|-0-----------||-------3-----|-1-----0-----|-------3-----|
|-----------0-|-----0-----0-|-----------0-|-----------0--||-----3-----0-|---1-----0---|-----3-----0-|-----3-----0--||---2-------1-|---2-----0---|---2-------1-|---2-------1--||---3---------|---2---------|---3---------|---3----------||---------2---|-0-----------|-0-------2---|-0-------2----||-1-----0-----|-------3-----|-------0-----|-------0------|
|---------------0--|-0-----0-----|-1-----1-3p1-0---||---1-0---------0--|-1-----------|---------------3-||-2-----2-0-----1--|-2-----1-----|-2-----2---------||-----------3------|-------------|-------0---------||-3----------------|---0-0---2-2-|---3-3-----------||-------------0----|-------------|-----------------|
|-0-1p0-------0-------|-----------------0-|-0-----0------||-1-----3-1-3---3-1-0-|---1-0-----------0-|-1------------||-2---------1---------|-2-----2-0-------1-|-2-----1------||-2-------------------|-----------3-------|--------------||---------------------|-3-------------2---|---0-0---2-2--||-----------0---------|-------------0-----|--------------|
To Coda|-0-----1-3p1-0---||-0-1p0-------0-------|---0-0-0-----||---------------3-||-------3-1-3---3-1-0-|-1-------3-1-||-0-----2---------||---------------------|-0-----------||-------0---------||-----------3---------|-2-----------||---4-4-----------||-3-------------------|-3-----------||-----------------||-----------3---------|-------------|
|---------------|-------------|-------0-------|-----------0-||-0-0-0-0-0-----|-0-----0-----|-0-0-0---3-----|-0-------0---||-------------2-|-------------|-------------2-|-------1-----||-----2---0-3---|-----2---0-3-|-----2-3---3---|-----2-------||---0-----------|---2---------|---2-----------|---2---------||-0-----1-------|-0-----1-----|-0-------------|-0-----------|
|-5-5-5-5-3-1-|-0--0-----5-5-|-3--3-1--1-|-0---------3-1--||-6-6-6-6-5-3-|-1--1---------|-0--0------|-----------0----||-------------|----------5-5-|------2--2-|-1-----------2--||-------------|----2---------|-----------|---2----2-------||-------------|--------------|-----------|-----2----------||-------------|----3---------|-----------|----------------|
|-0---------3-1-|-5-3-5-3-1--|-0---------3-1-|-0---------3-1--||-----------0---|-6-5-6-5-3--|-----------0---|-----------0----||-1-----------2-|------------|-1-----------2-|-1-----------2--||---2----2------|------------|---2----2------|---2----2-------||-----2---------|------------|-----2---------|-----2----------||---------------|------------|---------------|----------------|
|-5-3-5-3-1--|-0-----------|-------------|--------------||-6-5-6-5-3--|-1-----------|-3-----------|-1------------||------------|---0-0-0h2-0-|-4-----------|-1------------||------------|-------------|-------------|---3-3-3h5-3--||------------|-------------|-------------|--------------||------------|-------------|---3-3-3h5-3-|--------------|
|-------------|---0-0-0-0-0-0-0-0-0-0-0-|-0-0-0-0-0-0-0-0-0-0-0-0-||-1-----------|-------------------------|-------------------------||-1-----------|-------------------------|-----------------2---1---||---3-3-3p2-1-|-2-----------------------|-----0---2---3-----------||-------------|-----------------0---2---|-3-----------------------||-------------|-------------4-----------|-------------------------|
|---0-0-0-0-0-0-0-0-0-0-0-|-0-0-0-0-0-0-0-0-0-0-0-0-|-----0---3-1-||-------------------------|-------------------------|---0-----0---||-------------------------|-----------------2---1---|---1-------2-||-2-----------------------|-----0---2---3-----------|-2-----------||-----------------0---2---|-3-----------------------|-------------||-------------4-----------|-------------------------|-------0-----|
|-----0---3-1-|-5-3-5-3-1--|-0---------3-1-|-0---------3-1--||---0-----0---|-6-5-6-5-3--|-----------0---|-----------0----||---1-------2-|------------|-1-----------2-|-1-----------2--||-2-----------|------------|---2----2------|---2----2-------||-------------|------------|-----2---------|-----2----------||-------0-----|------------|---------------|----------------|
|-5-3-5-3-1--|-0-----------|-------------|--------------||-6-5-6-5-3--|-1-----------|-3-----------|-1------------||------------|---0-0-0h2-0-|-4-----------|-1------------||------------|-------------|-------------|---3-3-3h5-3--||------------|-------------|-------------|--------------||------------|-------------|---3-3-3h5-3-|--------------|
|-------------|---0-0-0-0-0-0-0-0-0-0-0-|-0-0-0-0-0-0-0-0-0-0-0-0-||-1-----------|-------------------------|-------------------------||-1-----------|-------------------------|-----------------2---1---||---3-3-3p2-1-|-2-----------------------|-----0---2---3-----------||-------------|-----------------0---2---|-3-----------------------||-------------|-------------4-----------|-------------------------|
|---0-0-0-0-0-0-0-0-0-0-0-|-0-0-0-0-0-0-0-0-0-0-0-0-||-------------------------|-------------------------||-------------------------|-----------------2---1---||-2-----------------------|-----0---2---3-----------||-----------------0---2---|-3-----------------------||-------------4-----------|-------------------------|
|-1h3-1-0-----|-1h3-1-0-----|-------------||-------1-----|-------1-----|-1h3-1-0-----||-2-----0-----|-2-----0-----|-2-----2-----||-2-----------|-2-----------|-2-----1-----||---------3-3-|---------3-3-|-------------||-------------|-------------|---------2-2-|
|-------------|-------------|---0-0-3-3-3-||-1h3-1-0-----|-------------|---0-0-1-1-1-||-2-----2-----|-------------|---1-1-2-2-2-||-2-----1-----|-------2-2-1-|-2-----------||-------------|-0-2-3-------|-------------||---------2-2-|-------------|-------------|
D.C. al Coda|---3-3-1-1-1-|-0-----0-----|-0-----0-----|||---3-3-1-1-1-|---0-----3---|---1-----0---|||---4-4-2-2-2-|-----1-----0-|-----2-----1-|||-------------|-------------|-------------|||-------------|-------------|-------------|||-0-----------|-0-----------|-------------||
&|-------------|-------------|-0-------|-0------------||-1-----------|-------0-1-3-|---------|--------------||-0-----------|---1-2-------|-----3---|-2------------||-2-------0-2-|-4-----------|-----5---|-3------------||---0-2-3-----|-------------|-----3---|-------0-2-3--||-------------|-------------|---------|---1-3--------|
|-------------|-------0---|----0---|-5---------|||-----------0-|-1---1-----|----3---|-5---------|||-------0-2---|-----------|----1---|-5---------|||-0-2-3-------|---2-------|----2---|-7---------|||-------------|-----------|--------|-----0-----|||-------------|-----------|--------|-----------||
Please rate this tab:
x1.0