Federico Moreno Torroba – Siete Piezas - 4 Aire Vasco tab

Siete Piezas de Album: IV. Aire Vasco - Federico Moreno Toroba

Arranged by Paulino Blanco

||--0-----0-|---1-0---|-------|--------||||--1-3-1-1-|-3-----3-|-1--0--|-0------||||*-2-----2-|-2-----2-|-2--1--|-1--2--*||||*---------|-3-------|-2-----|-0-----*||||--0-------|-------2-|-------|-0--3---||||----------|---------|----0--|----5---||
||--0-0-0-0-1-|-3-1-0------|----0--|--------||||--1---------|-0-----3-1--|-3--0--|-3--1---||||*-0---------|-0----------|-2--0--|-4--0--*||||*-----------|-2----------|-3-----|----2--*||||--3---------|------------|-------|----3---||||------------|------------|-------|-3------||
||---------|---------|---------|-0------|-----------|||---------|-------0-|-1-1-1-3-|-0----3-|-1---------|||---------|-2-2-2---|-4---2---|-1------|-2---------|||-------0-|-3-------|---------|--------|---2-2-1-2-|||-3-3-3---|---------|---------|--------|-----------|||---------|---------|---------|----0---|-----------|
|-----------|---------|-------0-|---------|----------||-0---------|-------0-|---1-3-1-|---6-5-6-|----8-7-8-||-2---------|---1-2-1-|---2-4---|---5-5-5-|----7-7-7-||---0-0---0-|---2-4---|---------|---7-7-7-|----9-9-9-||-------4---|---------|-0-------|-5-------|-10-------||-----------|-0-------|---------|---------|----------|
|---0---0-|---------|---------|---------|---------|---------|||---0-4-0-|---6-5-6-|---3-2-3-|---5-4-5-|---3-2-3-|---0---0-|||---0-4-0-|---5-5-5-|---2-2-2-|---4-4-4-|---2-2-2-|-----3---|||-----5---|---7-7-7-|---3-3-3-|---4-4-4-|---3-3-3-|---1-3-1-|||-3-------|-8-------|-2-------|-7-------|-2-------|---------|||---------|---------|---------|---------|---------|-0-------||
||--0-----0-|---1-0---|-------|--------||||--1-3-1-1-|-3-----3-|-1--0--|-0------||||*-2-----2-|-2-----2-|-2--1--|-1--2--*||||*---------|-3-------|-2-----|-0-----*||||--0-------|-------2-|-------|-0--3---||||----------|---------|----0--|----5---||
||-0-0-0-0-1-|-3-1-0-----|----0--|-------|||-1---------|-0-----3-1-|-3--0--|-3--1--|||-0---------|-0---------|-2--0--|-4--0--|||-----------|-2---------|-3-----|-3--2--|||-3---------|-----------|-------|----3--|||-----------|-----------|-------|-3-----|
|-0-0-0-0-1-|-3-1-0-----|----0--|-5-----|||-1---------|-0-----3-1-|-0--0--|-5-----|||-0---------|-0---------|-2--1--|-5-----|||-----------|-2---------|-3-----|-7-----|||-3---------|-----------|-------|-7-----|||-----------|-----------|----0--|-5-----||
Please rate this tab:
x1.0