Feed Her To The Sharks - Burning Within tab

This is my first written tablature, and I learned this song completely by ear. So, I 
apologize in advance
for any part in this song that you don't agree with me on.

ALSO!! These are pretty much just the parts that I could hear the best in the album 
version, so the solo
and little lead riffs aren't going to be included in this, but some other lead guitar 
parts might be.

I'll try to figure out the missing parts and add them in later.

Also Also!! These tabs are generally made for a type of reference point. I tried my best 
to portray them,
but you're going to have to listen to the song for the rhythm patterns and such,
them being pretty complicated and stuff........

P.s. I didn't bother putting in which parts are palm muted. I figured it was pretty 
obvious, if you listen to it.

Hope what I have helps!!   :D

Feed Her to the Sharks
         Burning Within
         Drop-C Tuning

Intro (0:10-0:20)|-------------------------------------------------------------------------||-------------------------------------------------------------------------||-------------------------------------------------------------------------||----7-7-7-7--7-7-7-7--7-7-7-7--10-10-10-10-----------10-10-10-10---------||--------------------------------------------8-8-8-8----------------------||-------------------------------------------------------------------------|
|-------------------------------------------------------------------------||-------------------------------------------------------------------------||-------------------------------------------------------------------------||----8-8-8-8--7-7-7-7--7-7-7-7--8-8-8-8--7-7-7-7--10-10-10-10-------------||--------------------------------------------------------------8-8-8-8----||-------------------------------------------------------------------------|
|-------------------------------------------------------------------------||-------------------------------------------------------------------------||-------------------------------------------------------------------------||---10-10-10-10--8-8-8-8--7-7-7-7--7-7-7-7--8-8-8-8--7-7-7-7--10-10-10-10-||-------------------------------------------------------------------------||-------------------------------------------------------------------------|
|-------------------------------------------------------------------------||-------------------------------------------------------------------------||-------------------------------------------------------------------------||------------10-10-10-10--8-8-8-8--7-7-7-7--7-7-7-7--8-8-8-8--7-7-7-7-----||---8-8-8-8---------------------------------------------------------------||-------------------------------------------------------------------------||-------------------------------------------------------------------------|
|-------------------------------------------------------------------------||-------------------------------------------------------------------------||-------------------------------------------------------------------------||--10-10-10-10-----------10-10-10-10--8-8-8-8--7-7-7-7--------------------||---------------8-8-8-8---------------------------------------------------||-------------------------------------------------------------------------|
Verse 1 (0:20-0:40)|-------------------------------------------------------------------------||-------------------------------------------------------------------------||-------------------------------------------------------------------------||---7-7-7-7-------------------------------------------10-10-10-10---------||------------8-8-8-8------------------------------------------------------||----------------------7-7-7-7--8-8-8-8--10-10-10-10----------------------|
|-------------------------------------||-------------------------------------||-------------------------------------||---7-7-7-7---------------------------||-----------8-8-8-8-------------------||-------------------------------------| x3
|---------------------------------------------||---------------------------------------------||---------------------------------------------||-----------5-------8---7---------------------||-------5-------8------------8-8-8-8--10~-----||---5-5---5---5---5---5---5-------------------|
|-------------------------------------------------------------------------||-------------------------------------------------------------------------||-------------------------------------------------------------------------||---7-7-7-7-------------------------------------------10-10-10-10---------||------------8-8-8-8------------------------------------------------------||----------------------7-7-7-7--8-8-8-8--10-10-10-10----------------------|
|-------------------------------------||-------------------------------------||-------------------------------------||---7-7-7-7---------------------------||-----------8-8-8-8-------------------||-------------------------------------| x3
|---------------------------------------------||---------------------------------------------||---------------------------------------------||-----------5-------8---7---------------------||-------5-------8------------8-8-8-8--10~-----||---5-5---5---5---5---5---5-------------------|
(0:41-0:53)|--------------------------------------------------||--------------------------------------------------||--------------------------------------------------||---0-0-0--0--0--0~~----0-0-0--0--0--0~~-----------||---0-0-0--0--0--0~~----0-0-0--0--0--0~~-----------||---0-0-0--0--0--0~~----0-0-0--0--0--0~~-----------|
|-------------------------------------------------||-------------------------------------------------||-------------------------------------------------||---7-----------10-----------------7--------------||-----8--0-0-0-----7-8--0-0-0-0-0----8-10---------||--------0-0-0----------0-0-0-0-0-----------------| x3
|---------------------------------------------||---------------------------------------------||---------------------------------------------||-----------5-------8---7---------------------||-------5-------8------------8-8-8-8--10~-----||---5-5---5---5---5---5---5-------------------|
(0:53-1:03)|-----------------------------------------------||-----------------------------------------------||-----------------------------------------------||---7---------------------------7---------------||-----8--0-0-0-0-0-0-0-0-0-0-0----8-10----------||--------0-0-0-0-0-0-0-0-0-0-0------------------|
|-------------------------------------------------------||-------------------------------------------------------||-------------------------------------------------------||---7---------------------------------------------------||-----8--0-0-0--0-0-0--0-0-0--0-0-0--0-0-0--7h8-8~~-----||--------0-0-0--0-0-0--0-0-0--0-0-0--0-0-0--------------|
|-----------------------------------------------||-----------------------------------------------||-----------------------------------------------||---7---------------------------7---------------||-----8--0-0-0-0-0-0-0-0-0-0-0----8-10----------||--------0-0-0-0-0-0-0-0-0-0-0------------------|
|-------------------------------------------------------||-------------------------------------------------------||-------------------------------------------------------||---7---------------------------------------------------||-----8--0-0-0--0-0-0--0-0-0--0-0-0--0-0-0--7h8-8~~-----||--------0-0-0--0-0-0--0-0-0--0-0-0--0-0-0--------------|
(1:03-1:15)|-------------------------------------------------||-------------------------------------------------||-------------------------------------------------||---7-----------10-----------------7--------------||-----8--0-0-0-----7-8--0-0-0-0-0----8-10---------||--------0-0-0----------0-0-0-0-0-----------------| x2
|---------------------------------------------------||---------------------------------------------------||---------------------------------------------------||---8h10p8-7-5-7h8p7-5-3-5h7p5-3-2-3h5p3-2-0--------||---------------------------------------------------||---------------------------------------------------|
|---------------------------------------------||---------------------------------------------||---------------------------------------------||-----------5-------8---7---------------------||-------5-------8------------8-8-8-8--10~-----||---5-5---5---5---5---5---5-------------------|
(1:15-1:27)|-------------------------------------------||-------------------------------------------||-------------------------------------------||---000----------000-------0~~--------------||---000-0-0-0-0--000-0-0-0-0~~--------------||---000-0-0-0-0--000-0-0-0-0~~--------------|
|------------------------------------------||------------------------------------------||------------------------------------------||------------------------------------------||---000-0-0----000-0-0-000-0-0-------------||---000-0-0----000-0-0-000-0-0-------------| x2
|---------------------------------------||---------------------------------------||---------------------------------------||----------------------------0~~--------||---000-0-0----000-0-0-000-0-0~~--------||---000-0-0----000-0-0-000-0-0~~--------|
(1:27-1:38)|---------------------------------------------||---------------------------------------------||---------------------------------------------||---0--000-000---0---------000-000------------||---0--000-000---0--0-0-0--000-000------------||---0--000-000---0--0-0-0--000-000------------|
|---------------------------------------------||---------------------------------------------||---------------------------------------------||---000-000---0---------000-000---------------||---000-000---0--0-0-0--000-000---------------||---000-000---0--0-0-0--000-000---------------|
|---------------------------------------------||---------------------------------------------||---------------------------------------------||---000-000---0---------000-000---------------||---000-000---0--0-0-0--000-000---------------||---000-000---0--0-0-0--000-000---------------|
|---------------------------------------------||---------------------------------------------||---------------------------------------------||---000-000---0---------000-000---------------||---000-000---0--0-0-0--000-000---------------||---000-000---0--0-0-0--000-000---------------|
Pre-Chorus (1:38-2:00)|---------------------------------------------||---------------------------------------------||---------------------------------------------||---------------0----------------0------------||---0-000-000---0----0-000-000---0------------||---0-000-000---0----0-000-000---0------------| x2
|----------------------------------------------||----------------------------------------------||---3-3-3-3-3-3-3-3-3-3-3-3-3-3-3-3------------||---3-3-3-3-3-3-3-3-3-3-3-3-3-3-3-3------------||---1-1-1-1-1-1-1-1-1-1-1-1-1-1-1-1------------||----------------------------------------------|
|--------------------------------------------------||--------------------------------------------------||--------------------------------------------------||---3-3-3-3-3-3-3-2-2-2-2-2-2-2-2-2----------------||---3-3-3-3-3-3-3-2-2-2-2-2-2-2-2-2----------------||---3-3-3-3-3-3-3-2-2-2-2-2-2-2-2-2----------------|
|-------------------------------------------||-------------------------------------------||-------------------------------------------||---0---------------0-----------------------||---0---0-000-000---0---0-000-000-----------||---0---0-000-000---0---0-000-000-----------| x2
|----------------------------------------------||----------------------------------------------||---3-3-3-3-3-3-3-3-3-3-3-3-3-3-3-3------------||---3-3-3-3-3-3-3-3-3-3-3-3-3-3-3-3------------||---1-1-1-1-1-1-1-1-1-1-1-1-1-1-1-1------------||----------------------------------------------|
|--------------------------------------------------||--------------------------------------------------||--------------------------------------------------||---3-3-3-3-3-3-3-2-2-2-2-2-2-2-2-2----------------||---3-3-3-3-3-3-3-2-2-2-2-2-2-2-2-2----------------||---3-3-3-3-3-3-3-2-2-2-2-2-2-2-2-2----------------|
|-------------------------------------------||-------------------------------------------||-------------------------------------------||---0~~~------------------------------------||---0~~~------------------------------------||---0~~~------------------------------------| (Let ring out)
Chorus (2:00-2:20)|---------------------------------------------------||---------------------------------------------------||---9--9--9-9-9-9---9-9--9-9-9-9--------------------||---7--7--7-7-7-7---7-7--7-7-7-7--------------------||---7--7--7-7-7-7---7-7--7-7-7-7--------------------||---7--7--7-7-7-7---7-7--7-7-7-7--------------------|
|--------------------------------------------------||--------------------------------------------------||---7--7--7-7-7-7---7-7--7-7-7-7-------------------||---5--5--5-5-5-5---5-5--5-5-5-5-------------------||---5--5--5-5-5-5---5-5--5-5-5-5-------------------||---5--5--5-5-5-5---5-5--5-5-5-5-------------------|
|--------------------------------------------||--------------------------------------------||---5---5------5--5--5-5-5-------------------||---3---3------3--3--3-3-3-------------------||---3---3------3--3--3-3-3-------------------||---3---3------3--3--3-3-3-------------------| (PAUSE!)
|-----------------------------------------------||-----------------------------------------------||-----------------------------------------------||---1-----3---2p1---------3p0-------------------||---1---1---1-----3p0~--1-----3/5~--------------||---1---1---1-----------1-----------------------|
|---------------------------------------------------||---------------------------------------------------||---9--9--9-9-9-9---9-9--9-9-9-9--------------------||---7--7--7-7-7-7---7-7--7-7-7-7--------------------||---7--7--7-7-7-7---7-7--7-7-7-7--------------------||---7--7--7-7-7-7---7-7--7-7-7-7--------------------|
|--------------------------------------------------||--------------------------------------------------||---7--7--7-7-7-7---7-7--7-7-7-7-------------------||---5--5--5-5-5-5---5-5--5-5-5-5-------------------||---5--5--5-5-5-5---5-5--5-5-5-5-------------------||---5--5--5-5-5-5---5-5--5-5-5-5-------------------|
|--------------------------------------------||--------------------------------------------||---5---5------5--5--5-5-5-------------------||---3---3------3--3--3-3-3-------------------||---3---3------3--3--3-3-3-------------------||---3---3------3--3--3-3-3-------------------| (PAUSE!)
|-----------------------------------------------||-----------------------------------------------||-----------------------------------------------||---1-----3---2p1---------3p0-------------------||---1---1---1-----3p0~--1-----3/5~--------------||---1---1---1-----------1-----------------------|
Repeat Intro Riff Repeat Verse, from 0:20-0:40
Verse 2 (2:51-3:11)|---------------------------------------------||---------------------------------------------||---------------------------------------------||---------------------------------------0~----||---000-0-0-0-0-000-0-0-0-0-000-0-0-0-0-0~----||---000-0-0-0-0-000-0-0-0-0-000-0-0-0-0-0~----|
|---------------------------------------------||---------------------------------------------||---------------------------------------------||---------------------------------------0~----||---000-0-0-0-0-000-0-0-0-0-000-0-0-0-0-0~----||---000-0-0-0-0-000-0-0-0-0-000-0-0-0-0-0~----|(Play both with 3 beats of open C afterwards.
Play the same rhythm 3 more times but with only one beat after each. Pre-Chorus Chorus
Solo-End (3:54-End)|---------------------------------------------------||---------------------------------------------------||---9--9--9-9-9-9---9-9--9-9-9-9--------------------||---7--7--7-7-7-7---7-7--7-7-7-7--------------------||---7--7--7-7-7-7---7-7--7-7-7-7--------------------||---7--7--7-7-7-7---7-7--7-7-7-7--------------------|
|--------------------------------------------------||--------------------------------------------------||---7--7--7-7-7-7---7-7--7-7-7-7-------------------||---5--5--5-5-5-5---5-5--5-5-5-5-------------------||---5--5--5-5-5-5---5-5--5-5-5-5-------------------||---5--5--5-5-5-5---5-5--5-5-5-5-------------------|
|---------------------------------------------------||---------------------------------------------------||---9--9--9-9-9-9---9-9--9-9-9-9--------------------||---7--7--7-7-7-7---7-7--7-7-7-7--------------------||---7--7--7-7-7-7---7-7--7-7-7-7--------------------||---7--7--7-7-7-7---7-7--7-7-7-7--------------------|
|--------------------------------------------------||--------------------------------------------------||---7--7--7-7-7-7---7-7--7-7-7-7-------------------||---5--5--5-5-5-5---5-5--5-5-5-5-------------------||---5--5--5-5-5-5---5-5--5-5-5-5-------------------||---5--5--5-5-5-5---5-5--5-5-5-5-------------------|
|---------------------------------------------------||---------------------------------------------------||---9--9--9-9-9-9---9-9--9-9-9-9--------------------||---7--7--7-7-7-7---7-7--7-7-7-7--------------------||---7--7--7-7-7-7---7-7--7-7-7-7--------------------||---7--7--7-7-7-7---7-7--7-7-7-7--------------------|
|--------------------------------------------------||--------------------------------------------------||---7--7--7-7-7-7---7-7--7-7-7-7-------------------||---5--5--5-5-5-5---5-5--5-5-5-5-------------------||---5--5--5-5-5-5---5-5--5-5-5-5-------------------||---5--5--5-5-5-5---5-5--5-5-5-5-------------------|
|---------------------------------------------------||---------------------------------------------------||---9--9--9-9-9-9---9-9--9-9-9-9--------------------||---7--7--7-7-7-7---7-7--7-7-7-7--------------------||---7--7--7-7-7-7---7-7--7-7-7-7--------------------||---7--7--7-7-7-7---7-7--7-7-7-7--------------------|
|--------------------------------------------------||--------------------------------------------------||---7--7--7-7-7-7---7-7--7-7-7-7-------------------||---5--5--5-5-5-5---5-5--5-5-5-5-------------------||---5--5--5-5-5-5---5-5--5-5-5-5-------------------||---5--5--5-5-5-5---5-5--5-5-5-5-------------------|
|-------------------------------------------------||-------------------------------------------------||---5~--/---9---7-----5~--/--9--10----------------||---3~--/---7---5-----3~--/--7--8-----------------||---3~--/---7---5-----3~--/--7--8-----------------||---3~--/---7---5-----3~--/--7--8-----------------|
|------------------------------------------------||------------------------------------------------||------------------------------------------------||---1---1---------1---1-----------0~~------------||---1---1---------1---1-----------0~~------------||---1---1---------1---1-----------0~~------------|
Again, sorry for any inconsistencies, mess ups, or anything else you have a problem with. I love criticism (so long as it's positive) so shoot some my way if you deem it necessary. Go like my band, ReaGan Smash, on Facebook while your at it, too!!
Tap to rate this tab
 
# A B C D E F G H I J K L M N O P Q R S T U V W X Y Z