Feeder – Tangerine tab

Artist: Feeder
Song: Tangerine
Tuning: Drop D
Guitars: Gtr 1 - Distorted
         Gtr 2 - Overdriven
         Gtr 3 - Overdriven (Optional, only needed in Outro)

This is such a great song. It’s a pity the lyrics are so rubbish. I think its all right, 
have fun! I’m at mouldysandwich@hotmail.co.uk for comments/corrections.

Intro: (00:00)Gtr 1|------------------------------------||------------------------------------||------------------------------------||--0h3--0h3--0h3--0h3----------------||--0h3--0h3--0h3--0h3----------------||--0h3--0h3--0h3--0h3---X/-----------| |Pick scrape|
Interlude: (00:05)Gtr 1 + 2|-------------------------------------------------||-------------------------------------------------||-------------------------------------------------| x6|--1h3--3--3--3--1--1--1--1--0--0--0--0--6--6--6--||--1h3--3--3--3--1--1--1--1--0--0--0--0--6--6--6--||--1h3--3--3--3--1--1--1--1--0--0--0--0--6--6--6--|
Verse: (00:18) 'Tangerine, Tiny green...'Gtr 1|-------------------------------------------------||-------------------------------------------------||-------------------------------------------------| x8|--1h3--3--3--3--1--1--1--1--0--0--0--0--6--6--6--||--1h3--3--3--3--1--1--1--1--0--0--0--0--6--6--6--||--1h3--3--3--3--1--1--1--1--0--0--0--0--6--6--6--|
2nd Interlude: (00:35) 'Tangerine, Tangerine...'Gtr 1|-------------------------------------------------||-------------------------------------------------||-------------------------------------------------| x4|--1h3--3--3--3--1--1--1--1--0--0--0--0--6--6--6--||--1h3--3--3--3--1--1--1--1--0--0--0--0--6--6--6--||--1h3--3--3--3--1--1--1--1--0--0--0--0--6--6--6--|
Gtr 2|--------------------------------------------------||--------------------------------------------------||--8h10-10-10-10-8--8--8--8--7--7--7--7--13-13-13--| x4|--------------------------------------------------||--6h8--8--8--8--6--6--6--6--5--5-5-5-5--11-11-11--||--------------------------------------------------|
Pre Chorus: (00:43)Gtr 2|----------------------------------------------------------------||----------------------------------------------------------------||----------------------------------------------------------------||----------------------------------------------------------------||---------11---------11------11---------11---------11------11----||--0--0-------0--0-------0-------0--0-------0--0-------0---------| |With wah wah -------------------------------------------------|
CHORUS: (00:48) 'I know it's sad...'Gtr 1|--------------------------------------------------------||--------------------------------------------------------||--5--5--5--5-5------------------------------------------| x4|--5--5--5--5-5-0--0--0--0-0-10-10-10-1010-0--0--0--0-0--||--3--3--3--3-3-0--0--0--0-0-8--8--8--8-8--0--0--0--0-0--||---------------0--0--0--0-0-8--8--8--8-8--0--0--0--0-0--|
Gtr 2|---------------------------------------------------||---------------------------------------------------||--9--9--9--9--9--9--9--9--9--9--9--9--9--9--9--9---| x4|--10-10-10-10-10-10-10-10-10-10-10-10-10-10-10-10--||---------------------------------------------------||---------------------------------------------------|
Interlude x2 (01:05) Verse x8 (01:09) '28, Suffocate...' 2nd Interlude x4 (01:26) 'Tangerine, Tangerine...' Pre Chorus (01:34)
CHORUS 2: (01:38) 'I know it's sad...'Gtr 1|--------------------------------------------------------||--------------------------------------------------------||--5--5--5--5-5------------------------------------------| x3|--5--5--5--5-5-0--0--0--0-0-10-10-10-1010-0--0--0--0-0--||--3--3--3--3-3-0--0--0--0-0-8--8--8--8-8--0--0--0--0-0--||---------------0--0--0--0-0-8--8--8--8-8--0--0--0--0-0--|
Gtr 2|---------------------------------------------------||---------------------------------------------------||--9--9--9--9--9--9--9--9--9--9--9--9--9--9--9--9---| x3|--10-10-10-10-10-10-10-10-10-10-10-10-10-10-10-10--||---------------------------------------------------||---------------------------------------------------|
thenGtr 1|-----------------------------||-----------------------------||--5--5--5--5-5---------------||--5--5--5--5-5-0--0--0--0-0--||--3--3--3--3-3-0--0--0--0-0--||---------------0--0--0--0-0--|
Gtr 2|--------------------------||--------------------------||--9--9--9--9--9--9--9--9--||--10-10-10-10-10-10-10-10-||--------------------------||--------------------------|
Bridge: (01:54)Gtr 1|------------------------------------------------------||------------------------------------------------------||------------------------------------------------------||--10-10-10-10-10-10-10-10----3--3--3--6--0----0--0----||--8--8--8--8--8--8--8--8-----3--3--3--6--0----0--0----||--8--8--8--8--8--8--8--8-----3--3--3--6--0----0--0----| |PM--------------------------------------------------|
'See me as I climb...'|----------------------------------------------------||----------------------------------------------------||----------------------------------------------------||--10----10----10----10-------3--3--3--6--0----0--0--||--8--8--8--8--8--8--8--8-----3--3--3--6--0----0--0--||--8--8--8--8--8--8--8--8-----3--3--3--6--0----0--0--|
|----------------------------------------------------||----------------------------------------------------||----------------------------------------------------||--10----10----10----10-------3--3--3--6--0----0--0--||--7--7--7--7--8--8--8--8-----3--3--3--6--0----0--0--||--7--7--7--7--8--8--8--8-----3--3--3--6--0----0--0--|
|----------------------------------------------------||----------------------------------------------------||----------------------------------------------------||--10----10----10----10-------3--3--3--6--0----0--0--||--8--8--8--8--8--8--8--8-----3--3--3--6--0----0--0--||--8--8--8--8--8--8--8--8-----3--3--3--6--0----0--0--|
thenGtr 1|---------------------------------||---------------------------------||---------------------------------||--10-----------------------------||--8------------------------------||--8------------------------------|
Gtr 2|---------------------------------||---------------------------------||---------------------------------||---------------------------------||--1----3--5--7--8--10--12--13qb--||---------------------------------|
Solo: (02:19) Gtr 1 plays Verse x4 Gtr 2 just makes noise, play anything and use loads of distortion 2nd Interlude x4 (02:28) 'Tangerine, Tangerine...' Pre Chorus x2 (02:36)
CHORUS 3: (02:45) 'I know it's sad...'Gtr 1|--------------------------------------------------------||--------------------------------------------------------||--5--5--5--5-5------------------------------------------| x9|--5--5--5--5-5-0--0--0--0-0-10-10-10-1010-0--0--0--0-0--||--3--3--3--3-3-0--0--0--0-0-8--8--8--8-8--0--0--0--0-0--||---------------0--0--0--0-0-8--8--8--8-8--0--0--0--0-0--|
Gtr 2|---------------------------------------------------||---------------------------------------------------||--9--9--9--9--9--9--9--9--9--9--9--9--9--9--9--9---| x9|--10-10-10-10-10-10-10-10-10-10-10-10-10-10-10-10--||---------------------------------------------------||---------------------------------------------------|
thenGtr 1|-----------------------------||-----------------------------||--5--5--5--5-5---------------||--5--5--5--5-5-0--0--0--0-0--||--3--3--3--3-3-0--0--0--0-0--||---------------0--0--0--0-0--|
Gtr 2|--------------------------||--------------------------||--9--9--9--9--9--9--9--9--||--10-10-10-10-10-10-10-10-||--------------------------||--------------------------|
Outro: (03:21)Gtr 1|--------------------------------||--------------------------------||--------------------------------| x4 gradually fading out|--10---10---------10---10-------||--8----8----------8----8--------||--8----8----------8----8--------|
Gtr 2 (Let ring)|-----------12--------------12---||--10--------------10------------||--------------------------------| x4 gradually fading out|--------------------------------||--------------------------------||--------------------------------| |NH| |NH|
Gtr 3 (Listen to the song to hear where this fits in)|--------------------------------------------------------------||--------------------------------------------------------------||--------------------------------------------------------------||--------------------------------------------------------------| Repeat as|--1----0-1---3---5----7--8----10----12-13----[1----1----1-----|>needed until|--------------------------------------------------------------| faded out
Please rate this tab:
x1.0