Feeling - Love It When You Call tab

Standard tuning - EADGBe

Main riff (played during intro, verse and chorus):------------------------------|------------------------------|--5--5--5--5------------------|--5--5--5--5-----2--2--3--3---|--2--2--3--3-----2--2--3--3---|-----------------0--0--1--1---|
------------------------------|------------------------------|------------------------------|--5--5--7--7-----2--2--3--3---|--5--5--7--7-----2--2--3--3---|--3--3--5--5-----0--0--1--1---|
Listen to the song to hear when the chords ring and when they're muted/played with palm muting Bit just before chorus:
------------------------------|------------------------------|------------------------------|--7-----5-----5---------------|--7-----5-----5---------------|--5-----3-----2---------------|
------------------------------|------------------------------|------------------------------|--3-----5-----3-----5---------|--3-----5-----3-----5---------|--1-----3-----1-----3---------|
Key change:
------------------------------|------------------------------|--7--7--7--7------------------|--7--7--7--7-----4--4--5--5---|--4--4--5--5-----4--4--5--5---|-----------------2--2--3--3---|
------------------------------|------------------------------|------------------------------|--7--7--9--9-----4--4--5--5---|--7--7--9--9-----4--4--5--5---|--5--5--7--7-----2--2--3--3---|
Back to main riff for guitar 2 under the solo. Solo this may not be 100%. I find it hard to pick out the main guitar cos of the harmonised lead, but this works well for me.
-8-0-0-8-0-0-8-0-0-20-0-20-0--|------------------------------|------------------------------| play twice------------------------------|------------------------------|------------------------------|
-20-0-0-19-0-0-17-0-0-19-0-0--|------------------------------|------------------------------|------------------------------|------------------------------|------------------------------|
-17-0-15-0-17-0-15-0-13-0-12--|------------------------------|------------------------------|------------------------------|------------------------------|------------------------------|
-0-13-0-12-0-10-0-12-0-8~~~---|------------------------------|------------------------------|------------------------------|------------------------------|------------------------------|
------------------------------|-/13~~--13-12-----------------|--------------14-12-----------|--------------------15-14-12--|------------------------------|------------------------------|
------------------------------|-/15~~--15-13-12--------------|-----------------14-12--------|-----------------------15-14--|------------------------------|------------------------------|
------------------------------|-/17~~-17~-15-----------------|--------------17-16-14--------|------------------------------|------------------------------|------------------------------|
------------------------------|------------------------------|-17-16-14-------17-16-14------|----------17-15---------------|------------------------------|------------------------------|
----------------------19-20~~-|----------------15-17---------|-17-16-14-16-17---------------|------------------------------|------------------------------|------------------------------|
Tap to rate this tab
 
# A B C D E F G H I J K L M N O P Q R S T U V W X Y Z