Fei Comodo – Break The Ice tab ver. 2

Fei Comodo
Break The Ice (Demo)
Guitar Tab
Drop D Tuning
Tabbed By Jonathan Mack

This Is The Demo Version Of The Song.Not The One Off The Album.


. Palm Mute
x Muted String (Dead Note)
/ Slide Up
\ Slide Down
h Hammer On
p Pull Off
v Vibrato
* Pinch Harmonic

Note: During The Intro And Second Chorus There Is A Third Guitar.
      



Intro


Rhythm Guitar0:00|---------------------------------------------------------------------||---------------------------------------------------------------------||---------------------------------------------------------------------||6666-666-6666666-4444-444-4444444-2222-222-2222222-1111-111-2222-4444| x1|6666-666-6666666-4444-444-4444444-2222-222-2222222-1111-111-2222-4444||6666-666-6666666-4444-444-4444444-2222-222-2222222-1111-111-2222-4444|
|-----------------------------------------------------------------------||-----------------------------------------------------------------------||-----------------------------------------------------------------------||6666-666-6666666-4444-444-4444444-2222-222-2222222-1111-111-2-2-2-4-4-4| x2|6666-666-6666666-4444-444-4444444-2222-222-2222222-1111-111-2-2-2-4-4-4||6666-666-6666666-4444-444-4444444-2222-222-2222222-1111-111-2-2-2-4-4-4|
Lead Guitar0:00|--------------------------------------------------------------->|--------------------------------------------------------------->|16161616-161616-16161616161616-15151515-151515-15151515151515-->|-x-x-x-x--x-x-x--x-x-x-x-x-x-x--x-x-x-x--x-x-x--x-x-x-x-x-x-x-->|14141414-141414-14141414141414-13131313-131313-13131313131313-->|--------------------------------------------------------------->
|----------------------------------------------------------------||----------------------------------------------------------------||13131313-131313-13131313131313-15151515-151515-13131313-15151515||-x-x-x-x--x-x-x--x-x-x-x-x-x-x--x-x-x-x--x-x-x--x-x-x-x--x-x-x-x| x1|11111111-111111-11111111111111-13131313-131313-11111111-13131313||----------------------------------------------------------------|
|--------------------------------------------------------------->|--------------------------------------------------------------->|16161616-161616-16161616161616-15151515-151515-15151515151515-->|-x-x-x-x--x-x-x--x-x-x-x-x-x-x--x-x-x-x--x-x-x--x-x-x-x-x-x-x-->|14141414-141414-14141414141414-13131313-131313-13131313131313-->|--------------------------------------------------------------->
|----------------------------------------------------------------||----------------------------------------------------------------||13131313-131313-13131313131313-15151515-151515-13-13-13-15-15-15||-x-x-x-x--x-x-x--x-x-x-x-x-x-x--x-x-x-x--x-x-x--x--x--x--x--x--x| x1|11111111-111111-11111111111111-13131313-131313-11-11-11-13-13-13||----------------------------------------------------------------|
0:24|------------------------|-------------------------->|---9-11-9-14-16-14-12-14|---9-11-9-14-16-14-12-14-->|88-x--x-x--x--x--x--x--x|88-x--x-x--x--x--x--x--x-->|xx-6--8-6-11-13-11--9-11|xx-6--8-6-11-13-11--9-11-->|66----------------------|66------------------------>|------------------------|-------------------------->
|------------------------|----------------------||---9-11-9-14-16-14-12-14|---9-11----999--111111||99-x--x-x--x--x--x--x--x|88-x--x----xxx---x-x-x||xx-6--8-6-11-13-11--9-11|xx-6--8-6v-666---8-8-8| x1|77----------------------|66--------------------||------------------------|----------------------|
Guitar Three0:24|---------------------|---------------------|----------------------->|---------------------|---------------------|----------------------->|---------------------|---------------------|----------------------->|----9-----8-8/9-8-6-8|----9-----8-8/9-8-6-8|----9-----8-8/9-8-6-8-->|6-6---6-7------------|6-6---6-7------------|7-7---6-7-------------->|---------------------|---------------------|----------------------->
|-----------------------||-----------------------||----------131313-151515||----9------x-x-x--x-x-x| x1|6-6---6-7-111111-131313||-----------------------|
Verse One
Rhythm Guitar0:36 |------------------|--------------------|------------------------->|------------------|--------------------|------------------------->|------------------|--------------------|------------------------->|-9-----8-8/9-8-6-8|---9-----8-8/9-8-6-8|---------6-6--666-6-6-6-->|---6-7------------|66---6-7------------|11-13-9--6-6--666-6-6-6-->|------------------|66------------------|11-13-9--6-6--666-6-6-6-->
.. . . ... . . . 0:48|---------------------------|--------------------|---------------------->|---------------------------|--------------------|---------------------->|---------------------------|--------------------|---------------------->|--------1-1-1--1-1-1--1-1-1|---9-----8-8/9-8-6-8|---9-----8-8/9-8-6-8-->|11-13-8-1-1-1--1-1-1--1-1-1|66---6-7------------|66---6-7-------------->|11-13-8-1-1-1--1-1-1--1-1-1|66------------------|66--------------------> .. ..
|----------------------|---------------------------||----------------------|---------------------------||----------------------|---------------------------||---------6-6-666-6-6-6|--------1-1-1--1-1-1--1-1-1| x1|11-13-9--6-6-666-6-6-6|11-13-8-1-1-1--1-1-1--1-1-1||11-13-9--6-6-666-6-6-6|11-13-8-1-1-1--1-1-1--1-1-1| . . ... . . .
Lead Guitar0:36|----------------------|------------------------|------------------------->|-9-11-9-14-16-14-12-14|---9-11-9-14-16-14-12-14|14-16-12----------------->|-x--x-x--x--x--x--x--x|88-x--x-x--x--x--x--x--x|-x--x--x----------------->|-6--8-6-11-13-11--9-11|xx-6--8-6-11-13-11--9-11|11-13--9--6-6-666-6-6-6-->|----------------------|66----------------------|----------6-6-666-6-6-6-->|----------------------|------------------------|----------6-6-666-6-6-6-->
. . ... . . . 0:48|----------------------------|--------------------------------------------------->|14-16-11--------------------|---9-11-9-14-16-14-12-14|---9-11-9-14-16-14-12-14-->|-x--x--x--------------------|88-x--x-x--x--x--x--x--x|88-x--x-x--x--x--x--x--x-->|11-13--8-1-1-1--1-1-1--1-1-1|xx-6--8-6-11-13-11--9-11|xx-6--8-6-11-13-11--9-11-->|---------1-1-1--1-1-1--1-1-1|66----------------------|66------------------------>|---------1-1-1--1-1-1--1-1-1|------------------------|-------------------------->
|-----------------------|----------------------------||14-16-12---------------|14-16-11--------------------||-x--x--x---------------|-x--x--x--------------------||11-13--9--6-6-666-6-6-6|11-13--8-1-1-1--1-1-1--1-1-1| x1|----------6-6-666-6-6-6|---------1-1-1--1-1-1--1-1-1||----------6-6-666-6-6-6|---------1-1-1--1-1-1--1-1-1| . . ... . . .
Pre Chorus
Rhythm Guitar1:00|---------------------------|-----------||---------------------------|-----------||---------------------------|-----------||222-222-222-222-444-4-444-4|1-1-1-4-4-4| x1|222-222-222-222-444-4-444-4|1-1-1-4-4-4||222-222-222-222-444-4-444-4|1-1-1-4-4-4| ... ...
Lead Guitar1:00 |---------------------------|-----------||---------------------------|-----------||444-444-666-444------------|3-3-3-6-6-7||xxx-xxx-xxx-xxx------------|x-x-x-x-x-x| x1|222-222-444-222------------|1-1-1-4-4-5||---------------------------|-----------|
Chorus One
Rhythm Guitar1:06|---------------------------------------------------------------------||---------------------------------------------------------------------||---------------------------------------------------------------------||6666-666-6666666-4444-444-4444444-2222-222-2222222-1111-111-2222-4444| x1|6666-666-6666666-4444-444-4444444-2222-222-2222222-1111-111-2222-4444||6666-666-6666666-4444-444-4444444-2222-222-2222222-1111-111-2222-4444|
|-----------------------------------------------------------------------||-----------------------------------------------------------------------||-----------------------------------------------------------------------||6666-666-6666666-4444-444-4444444-2222-222-2222222-1111-111-2-2-2-4-4-4| x1|6666-666-6666666-4444-444-4444444-2222-222-2222222-1111-111-2-2-2-4-4-4||6666-666-6666666-4444-444-4444444-2222-222-2222222-1111-111-2-2-2-4-4-4|
Lead Guitar1:06|--------------------------------------------------------------->|--------------------------------------------------------------->|16161616-161616-16161616161616-15151515-151515-15151515151515-->|-x-x-x-x--x-x-x--x-x-x-x-x-x-x--x-x-x-x--x-x-x--x-x-x-x-x-x-x-->|14141414-141414-14141414141414-13131313-131313-13131313131313-->|--------------------------------------------------------------->
|----------------------------------------------------------------||----------------------------------------------------------------||13131313-131313-13131313131313-15151515-151515-13131313-15151515||-x-x-x-x--x-x-x--x-x-x-x-x-x-x--x-x-x-x--x-x-x--x-x-x-x--x-x-x-x| x1|11111111-111111-11111111111111-13131313-131313-11111111-13131313||----------------------------------------------------------------|
|--------------------------------------------------------------->|--------------------------------------------------------------->|16161616-161616-16161616161616-15151515-151515-15151515151515-->|-x-x-x-x--x-x-x--x-x-x-x-x-x-x--x-x-x-x--x-x-x--x-x-x-x-x-x-x-->|14141414-141414-14141414141414-13131313-131313-13131313131313-->|--------------------------------------------------------------->
|----------------------------------------------------------------||----------------------------------------------------------------||13131313-131313-13131313131313-15151515-151515-13-13-13-15-15-15||-x-x-x-x--x-x-x--x-x-x-x-x-x-x--x-x-x-x--x-x-x--x--x--x--x--x--x| x1|11111111-111111-11111111111111-13131313-131313-11-11-11-13-13-13||----------------------------------------------------------------|
Break Down
Rhythm Guitar1:30|---------------------|-------------------|-----------------||---------------------|-------------------|-----------------||----------------5---5|----------------4-4|----------------4||----------------4---4|----------------3-3|----------------3| x1|---------------------|6-4-0-x-6-4-0-x----|6-4-0-x-6-4-0-x--||6-4-0-x-6-4-0-x------|6-4-0-x-6-4-0-x----|6-4-0-x-6-4-0-x--|
|-------------------|-----------------||-------------------|-----------------||----------------4-4|----------------4||----------------3-3|----------------3| x1|6-4-0-x-6-4-0-x----|6-4-0-x-6-4-0-x--||6-4-0-x-6-4-0-x----|6-4-0-x-6-4-0-x--|
1:43|---------------------|-------------------||---------------------|-------------------||---------------------|-------------------||---------------------|-------------------| x2|6-4-0-0-6-4-0-0------|6-4-0-0-6-4-0-0----||6-4-0-0-6-4-0-0-9-9\6|6-4-0-0-6-4-0-0-9\6|
1:52|-------|-----------------||-------|-----------------||1---3--|8----------------||--2---4|------6/8-9-8-6\\| x1|-------|--6-7------------||-------|-----------------|
1:56|--------------------------------||--------------------------------||--------------------------------||11111111111111112222222222222222| x1|11111111111111112222222222222222||11111111111111112222222222222222|
Lead Guitar 1:32|---------------------|-------------------|-----------------||---------------------|-------------------|-----------------||-----------------4---|----------------4-4|----------------4||-----------------3---|----------------3-3|----------------3| x1|---------------------|6-4-0-x-6-4-0-x----|6-4-0-x-6-4-0-x--||---------------------|6-4-0-x-6-4-0-x----|6-4-0-x-6-4-0-x--|
|-------------------|-----------------||-------------------|-----------------||----------------4-4|----------------4||----------------3-3|----------------3| x1|6-4-0-x-6-4-0-x----|6-4-0-x-6-4-0-x--||6-4-0-x-6-4-0-x----|6-4-0-x-6-4-0-x--|
1:43|---------------------|-------------------||---------------------|-------------------||---------------------|-------------------||---------------------|-------------------| x2|6-4-0-0-6-4-0-0------|6-4-0-0-6-4-0-0----||6-4-0-0-6-4-0-0-9-9\6|6-4-0-0-6-4-0-0-9\6|
1:52|-------|-----------------||-------|-----------------||4---6--|8----------------||--6---8|------6/8-9-8-6\\| x1|-------|--6-7------------||-------|-----------------|
1:56 |----------------------------------------------------------------|
|1616161616161616161616161616161614141414141414141414141414141411||-x-x-x-x-x-x-x-x-x-x-x-x-x-x-x-x-x-x-x-x-x-x-x-x-x-x-x-x-x-x-x-x||13131313131313131313131313131313111111111111111111111111111111-9| x1|----------------------------------------------------------------||----------------------------------------------------------------|
Verse Two
Rhythm Guitar2:00|--------------------|--------------------|------------------------>|--------------------|--------------------|------------------------>|--------------------|--------------------|------------------------>|---9-----8-8/9-8-6-8|---9-----8-8/9-8-6-8|---------6-6-666-6-6-6-->|66---6-7------------|66---6-7------------|11-13-9--6-6-666-6-6-6-->|66------------------|66------------------|11-13-9--6-6-666-6-6-6--> .. .. . . ... . . .
|---------------------------||---------------------------||---------------------------||--------1-1-1--1-1-1--1-1-1| x2|11-13-8-1-1-1--1-1-1--1-1-1||11-13-8-1-1-1--1-1-1--1-1-1|
Lead Guitar2:00|------------------------|------------------------|------------------------->|---9-11-9-14-16-14-12-14|---9-11-9-14-16-14-12-14|14-16-12----------------->|88-x--x-x--x--x--x--x--x|88-x--x-x--x--x--x--x--x|-x--x--x----------------->|xx-6--8-6-11-13-11--9-11|xx-6--8-6-11-13-11--9-11|11-13--9--6-6-666-6-6-6-->|66----------------------|66----------------------|----------6-6-666-6-6-6-->|------------------------|------------------------|----------6-6-666-6-6-6--> . . ... . . .
|----------------------------||14-16-11--------------------||-x--x--x--------------------||11-13--8-1-1-1--1-1-1--1-1-1| x2|---------1-1-1--1-1-1--1-1-1||---------1-1-1--1-1-1--1-1-1|
Pre Chorus
Rhythm Guitar2:23|---------------------------|-----------||---------------------------|-----------||---------------------------|-----------||222-222-222-222-444-4-444-4|1-1-1-4-4-4| x1|222-222-222-222-444-4-444-4|1-1-1-4-4-4||222-222-222-222-444-4-444-4|1-1-1-4-4-4| ... ...
Lead Guitar2:23|---------------------------|-----------||---------------------------|-----------||444-444-666-444------------|3-3-3-6-6-7||xxx-xxx-xxx-xxx------------|x-x-x-x-x-x| x1|222-222-444-222------------|1-1-1-4-4-5||---------------------------|-----------|
Bridge Section Part One
Rhythm Guitar2:29|-------------------|-------------------|-------------------|-----------|-------------||----4-------4------|----4-------4------|----4-------4------|----4------|-------------||------4-------4----|------4-------4----|------4-------4----|------4----|4/6-4-3h4-1h3||--------4-------4--|--------4-------4--|--------4-------4--|--------4--|-------------| x1|-------------------|-------------------|-------------------|-----------|-------------||6-6-------6--------|6-6-------6--------|2-2-------2--------|2-2-------2|-------------|
Lead Guitar2:30|-------------------|-------------------|-------------------|-----------|--------------||----4-------4------|----4-------4------|----4-------4------|----4------|4/5-4--2h4-0h2||------6-------6---6|------6-------6---6|------6-------6---6|------6----|--------------||--------4-------4--|--------4-------4--|--------4-------4--|--------4--|--------------| x1|-------------------|-------------------|-------------------|-----------|--------------||-------------------|-------------------|-------------------|-----------|--------------|
Part Two
Both Guitars2:41|---------------------|---------------------|---------------------|--------------------------||---------------------|---------------------|---------------------|--------------------------||----4-3-----4-3------|----4-3-----4-3------|----4-3-----4-3------|----4-3------4/6-4-3h4-1h3||--------4-------4-4/6|--------4-------4-4/6|--------4-------4-4/6|--------4-----------------| x1|---------------------|---------------------|---------------------|--------------------------||6-6-------6----------|6-6-------6----------|2-2-------2----------|2-2-------2---------------|
Part Three
Rhythm Guitar2:53|---------------------|-------------------------||---------------------|-------------------------||----4-3-----4-3------|----4-3-----4/6-4-3h4-1h3||--------3-------4-4/6|--------4----------------| x1|---------------------|-------------------------||6-6-------6----------|6-6-------6--------------|
|---------------------|---------------------||---------------------|---------------------||----4-3-----4-3------|----4-3----4-3---3-6*||--------3-------4-4/6|--------4------6-----| x1|---------------------|---------------------||2-2-------2----------|2-2------------------|
Lead Guitar2:53|-------------------|-------------------------||----4-2-----4-2---2|----4-2-----4/5-4-2h4-0h2||--------4-------4--|--------4----------------||-------------------|-------------------------| x1|-------------------|-------------------------||6-6-------6--------|6-6-------6--------------|
|-------------------|----------------------||----4-2-----4-2---2|----4-2-----4-2---2-4*||--------4-------4--|--------4-------4-----||-------------------|----------------------| x1|-------------------|----------------------||2-2-------2--------|2-2-------------------|
Chorus Two
Rhythm Guitar3:05|---------------------------------------------------------------------||---------------------------------------------------------------------||---------------------------------------------------------------------||6666-666-6666666-4444-444-4444444-2222-222-2222222-1111-111-2222-4444| x2|6666-666-6666666-4444-444-4444444-2222-222-2222222-1111-111-2222-4444||6666-666-6666666-4444-444-4444444-2222-222-2222222-1111-111-2222-4444|
Let Ring|-----------------------------------------------------------------------|--------||-----------------------------------------------------------------------|--------||-----------------------------------------------------------------------|--------||6666-666-6666666-4444-444-4444444-2222-222-2222222-1111-111-2-2-2-4-4-4|6-------| x1|6666-666-6666666-4444-444-4444444-2222-222-2222222-1111-111-2-2-2-4-4-4|6-------||6666-666-6666666-4444-444-4444444-2222-222-2222222-1111-111-2-2-2-4-4-4|6-------|
Lead Guitar3:05|--------------------------------------------------------------->|--------------------------------------------------------------->|16161616-161616-16161616161616-15151515-151515-15151515151515-->|-x-x-x-x--x-x-x--x-x-x-x-x-x-x--x-x-x-x--x-x-x--x-x-x-x-x-x-x-->|14141414-141414-14141414141414-13131313-131313-13131313131313-->|--------------------------------------------------------------->
|----------------------------------------------------------------||----------------------------------------------------------------||13131313-131313-13131313131313-15151515-151515-13131313-15151515||-x-x-x-x--x-x-x--x-x-x-x-x-x-x--x-x-x-x--x-x-x--x-x-x-x--x-x-x-x| x1|11111111-111111-11111111111111-13131313-131313-11111111-13131313||----------------------------------------------------------------|
|--------------------------------------------------------------->|--------------------------------------------------------------->|16161616-161616-16161616161616-15151515-151515-15151515151515-->|-x-x-x-x--x-x-x--x-x-x-x-x-x-x--x-x-x-x--x-x-x--x-x-x-x-x-x-x-->|14141414-141414-14141414141414-13131313-131313-13131313131313-->|--------------------------------------------------------------->
|----------------------------------------------------------------||----------------------------------------------------------------||13131313-131313-13131313131313-15151515-151515-13-13-13-15-15-15||-x-x-x-x--x-x-x--x-x-x-x-x-x-x--x-x-x-x--x-x-x--x--x--x--x--x--x| x1|11111111-111111-11111111111111-13131313-131313-11-11-11-13-13-13||----------------------------------------------------------------|
3:29|------------------------|-------------------------->|---9-11-9-14-16-14-12-14|---9-11-9-14-16-14-12-14-->|88-x--x-x--x--x--x--x--x|88-x--x-x--x--x--x--x--x-->|xx-6--8-6-11-13-11--9-11|xx-6--8-6-11-13-11--9-11-->|66----------------------|66------------------------>|------------------------|-------------------------->
Let Ring|------------------------|----------------------|--------||---9-11-9-14-16-14-12-14|---9-11----999--111111|--------||99-x--x-x--x--x--x--x--x|88-x--x----xxx---x-x-x|--------||xx-6--8-6-11-13-11--9-11|xx-6--8-6v-666---8-8-8|6-------| x1|77----------------------|66--------------------|6-------||------------------------|----------------------|6-------|
Guitar Three3:29|---------------------|---------------------|----------------------->|---------------------|---------------------|----------------------->|---------------------|---------------------|----------------------->|----9-----8-8/9-8-6-8|----9-----8-8/9-8-6-8|----9-----8-8/9-8-6-8-->|6-6---6-7------------|6-6---6-7------------|7-7---6-7-------------->|---------------------|---------------------|----------------------->
Let Ring|-----------------------|--------||-----------------------|--------||----------131313-151515|--------||----9------x-x-x--x-x-x|6-------| x1|6-6---6-7-111111-131313|6-------||-----------------------|6-------|
Please rate this tab:
x1.0