Fei Comodo – Burn It All tab ver. 2

Fei Comodo
Burn It All 
Guitar Tab
Drop D Tuning
Tabbed By Jonathan Mack

This Is The Version From The 'They All Have Two Faces' Album.

. Palm Mute
x Muted String (Dead Note)
/ Slide Up
\ Slide Down
b Bend String (Quater Bend)
h Hammer On
p Pull Off
v Vibrato
R Ring Out/Hold Note
+ Natural Harmonic
* Pinch Harmonic
t Tremelo



Intro



Rhythm Guitar0:01|---------------------------------------------------------------------||11111111111111111111111111111111-1010101010-111111-1515151515151515--||-x-x-x-x-x-x-x-x-x-x-x-x-x-x-x-x--x-x-x-x-x--x-x-x--x-x-x-x-x-x-x-x--||-8-8-8-8-8-8-8-8-8-8-8-8-8-8-8-8--7-7-7-7-7--8-8-8-1212121212121212--||---------------------------------------------------------------------||---------------------------------------------------------------------|
|-------------------------------------------------------||10101010101010101010101010101010-77777777-8888-10101010||-x-x-x-x-x-x-x-x-x-x-x-x-x-x-x-x-xxxxxxxx-xxxx--x-x-x-x||-7-7-7-7-7-7-7-7-7-7-7-7-7-7-7-7-44444444-5555--7-7-7-7| x2|-------------------------------------------------------||-------------------------------------------------------|
0:20|------------------------------|--------------------------||------------------------------|--------------------------||------------------------------|--------------------------||0R----------------------------|--------------------------| x1|0R----------------------------|--------------------------||0R----------------------------|--------------------------|
0:25 0:27|------------------------------|----------------5*v---------||------------------------------|6---5-----5p3---------------||------------------------------|----------------------------||------------------------------|---------------------------0| x1|------------------------------|---------------------0-0-0-0||12\\\-------------------------|--0---0-0-----0------0-0-0-0| . . . . . . .
Lead Guitar0:01|-------------------------------------||---------------------------66666666--||7777777777777777-55555-777-xxxxxxxx--||xxxxxxxxxxxxxxxx-xxxxx-xxx-33333333--||5555555555555555-33333-555-----------||-------------------------------------|
|-------------------------------------------------||7777777777777777-10101010101010101111111113131313||xxxxxxxxxxxxxxxx--x-x-x-x-x-x-x-x-x-x-x-x-x-x-x-x||4444444444444444--777777777777777-8-8-8-810101010| X2|-------------------------------------------------||-------------------------------------------------|
0:20|--------------------------------|--------------------------------||--------------------------------|--------------------------------||0---2-----2h3---7\\-------------|7---5-----5p4-------------------||--------------------------------|----------------7\\-------------| x1|---------------------0-0-0-000-0|---------------------0-0-0-000-0||--0---0-0-----0------0-0-0-000-0|--0---0-0-----0------0-0-0-000-0| . . . . . . . ... . . . . . . . . ... .
0:25|--------------------------------|----------------5*v---------||--------------------------------|----------------------------||0---2-----2h3---7\\-------------|7---5-----5p4---------------||--------------------------------|---------------------------0| x1|---------------------0-0-0-000-0|---------------------0-0-0-0||--0---0-0-----0------0-0-0-000-0|--0---0-0-----0------0-0-0-0| . . . . . . . ... . . . . . . . .
Verse One
Rhythm Guitar0:30|--------------------------------|---------------------------------||--------------------------------|---------------------------------||--------------------------------|---------------------------------||2---3-----3h5---7\\-------------|3---2-----3----------------------| x1|---------------------0-0-0-000-0|--------------5---5\\-0-0-0-000-0||--0---0-0-----0------0-0-0-000-0|--0---0-0---0---0-----0-0-0-000-0| . . . . . . . ... . . . . . . . . . ... .
0:34|--------------------------------|-------------------------------||--------------------------------|-------------------------------||--------------------------------|----------------------------7--||2---3-----3h5---7\\-------------|3---2-----3-------------------5| x1|---------------------0-0-0-000-0|--------------5---5\\-0-0-0----||--0---0-0-----0------0-0-0-000-0|--0---0-0---0---0-----0-0-0----| . . . . . . . ... . . . . . . . . . + +
0:39|--------------------------------|---------------------------------||--------------------------------|---------------------------------||--------------------------------|---------------------------------||2---3-----3h5---7\\-------------|3---2-----3----------------------| x1|---------------------0-0-0-0-0-0|--------------5---5\\-0-0-0-0-0-0||--0---0-0-----0------0-0-0-0-0-0|--0---0-0---0---0-----0-0-0-0-0-0| . . . . . . . . . . . . . . . . . . . . .
0:44|--------------------------------|-------------------------------||--------------------------------|-------------------------------||--------------------------------|-------------------------------||2---3-----3h5---7\\-------------|3---2-----3--------------------| x1|---------------------0-0-0-0-0-0|--------------5---7-77-77-77-77||--0---0-0-----0------0-0-0-0-0-0|--0---0-0---0---0-7-77-77-77-77| . . . . . . . . . . . . . . . .. .. .. ..
Lead Guitar0:30|--------------------------------|--------------------------------||--------------------------------|--------------------------------||0---2-----2h3---7\\-------------|7---5-----5p4-------------------||--------------------------------|----------------7\\-------------| x1|---------------------0-0-0-000-0|---------------------0-0-0-000-0||--0---0-0-----0------0-0-0-000-0|--0---0-0-----0------0-0-0-000-0| . . . . . . . ... . . . . . . . . ... .
0:34|--------------------------------|--------------------------------||--------------------------------|---------------------------7----||0---2-----2h3---7\\-------------|7---5-----5p4------------------7||--------------------------------|----------------7\\----------5--| x1|---------------------0-0-0-000-0|---------------------0-0-0------||--0---0-0-----0------0-0-0-000-0|--0---0-0-----0------0-0-0------| . . . . . . . ... . . . . . . . . + + +
0:39|--------------------------------|--------------------------------||--------------------------------|--------------------------------||0---2-----2h3---7\\-------------|7---5-----5p4-------------------||--------------------------------|----------------7\\-------------| x1|---------------------0-0-0-0-0-0|---------------------0-0-0-0-0-0||--0---0-0-----0------0-0-0-0-0-0|--0---0-0-----0------0-0-0-0-0-0| . . . . . . . . . . . . . . . . . . . .
0:44|--------------------------------|-----------------------------||--------------------------------|-----------------------------||0---2-----2h3---7\\-------------|7---5-----5p4----------------||--------------------------------|-----------------------------| x1|---------------------0-0-0-0-0-0|----------------7-77-77-77-77||--0---0-0-----0------0-0-0-0-0-0|--0---0-0-----0-7-77-77-77-77| . . . . . . . . . . . . . . .. .. .. ..
Verse Extension
Rhythm Guitar0:50|-------------------------------------|----------------------------------||-------------------------------------|-----------------------------8-7--||-------------------------------------|-----------------------------x-x--||-------------------3-----------------|--------------3--------------5-4--||3-5\-00-00-00-00-0-3-33-33-33-33-3-5\|00-00-00-00-0-3-33-33-33-333------||-----00-00-00-00-0-3-33-33-33-33-----|00-00-00-00-0-3-33-33-33-333------| .. .. .. .. . .. .. .. .. .. .. .. .. . .. .. .. ...
1:00 tttttttt|-----------------------------|--------------------------------||-----------------------------|--------------------------------||-----------------------------|--------------------------------||--------------3--------------|5---------------6---------------| x1|00-00-00-00-0-3-33-33-33-33-3|5-55-55-55-55-5-6-66666---------||00-00-00-00-0-3-33-33-33-33-3|5-55-55-55-55-5-6-66666-66655553| .. .. .. .. . .. .. .. .. . .. .. .. .. . ..... .......
Lead Guitar0:50|5---------------|10---------------|10---------------|5------------------||--5-------------|---8-------------|---7-------------|--5-------------8-7||----7-77-77-77-7|-----7-77-77-77-7|-----7-77-77-77-7|----7-77-77-777-x-x||----------------|-----------------|-----------------|----------------5-4| x1|----------------|-----------------|-----------------|-------------------||----------------|-----------------|-----------------|-------------------| .. .. .. . .. .. .. . .. .. .. . .. .. ...
1:00 |--------------------------------------------||--------------8---8---7/8-----10-----7---8--||--------------x---x---x-x------x-----x---x--||--------------5---5---4/5------7-----4---5--||00-00-00-00---------------------------------||00-00-00-00-0---0---0-----0-0----0-0---0----| .. .. .. .. . . . . . . . .
tttttttt|------------------------------------------------||--8---8---7/8-----10-----7---8------------------||--x---x---x-x------x-----x---x------------------||--5---5---4/5------7-----4---5--6---------------| x1|--------------------------------6-66666---------||0---0---0-----0-0----0-0---0----6-66666-66655553| . . . . . . . . ..... .......
Verse Two
Rhythm Guitar1:09|--------------------------------|---------------------------------||--------------------------------|---------------------------------||--------------------------------|---------------------------------||2---3-----3h5---7\\-------------|3---2-----3----------------------| x1|---------------------0-0-0-000-0|--------------5---5\\-0-0-0-000-0||--0---0-0-----0------0-0-0-000-0|--0---0-0---0---0-----0-0-0-000-0| . . . . . . . ... . . . . . . . . . ... .
1:14|--------------------------------|-------------------------------||--------------------------------|-------------------------------||--------------------------------|----------------------------7--||2---3-----3h5---7\\-------------|3---2-----3-------------------5| x1|---------------------0-0-0-000-0|--------------5---5\\-0-0-0----||--0---0-0-----0------0-0-0-000-0|--0---0-0---0---0-----0-0-0----| . . . . . . . ... . . . . . . . . . + +
1:19|-----------------------------|--------------------------------||-----------------------------|--------------------------------||-----------------------------|--------------------------------||2---3-----3h5---7\\----------|3---2-----3---------------------| x1|---------------------0-0--0-0|--------------5---5\\-0-0--0-0-0||--0---0-0-----0------0-0--0-0|--0---0-0---0---0-----0-0--0-0-0| . . . . . . . . . . . . . . . . . .
1:24|-------------------------------|-------------------------------||-------------------------------|-------------------------------||-------------------------------|-------------------------------||2---3-----3h5---7\\------------|3---2-----3--------------------| x1|---------------------0-0--0-0-0|--------------5---7-77-77-77-77||--0---0-0-----0------0-0--0-0-0|--0---0-0---0---0-7-77-77-77-77| . . . . . . . . . . . . . . .. .. .. ..
Lead Guitar1:09|--------------------------------|--------------------------------||--------------------------------|--------------------------------||0---2-----2h3---7\\-------------|7---5-----5p4-------------------||--------------------------------|----------------7\\-------------| x1|---------------------0-0-0-000-0|---------------------0-0-0-000-0||--0---0-0-----0------0-0-0-000-0|--0---0-0-----0------0-0-0-000-0| . . . . . . . ... . . . . . . . . ... .
1:14|--------------------------------|--------------------------------||--------------------------------|---------------------------7----||0---2-----2h3---7\\-------------|7---5-----5p4------------------7||--------------------------------|----------------7\\----------5--| x1|---------------------0-0-0-000-0|---------------------0-0-0------||--0---0-0-----0------0-0-0-000-0|--0---0-0-----0------0-0-0------| . . . . . . . ... . . . . . . . . + + +
1:19|-----------------------------|-------------------------------||-----------------------------|-------------------------------||0---2-----2h3---7\\----------|7---5-----5p4------------------||-----------------------------|----------------7\\------------| x1|---------------------0-0--0-0|---------------------0-0--0-0-0||--0---0-0-----0------0-0--0-0|--0---0-0-----0------0-0--0-0-0| . . . . . . . . . . . . . . . . .
1:24|-------------------------------|-----------------------------||-------------------------------|-----------------------------||0---2-----2h3---7\\------------|7---5-----5p4----------------||-------------------------------|-----------------------------| x1|---------------------0-0--0-0-0|----------------7-77-77-77-77||--0---0-0-----0------0-0--0-0-0|--0---0-0-----0-7-77-77-77-77| . . . . . . . . . . . . . .. .. .. ..
Verse Extension
Rhythm Guitar1:29|-------------------------------------|--------------------------------||-------------------------------------|--------------------------------||5-7\-----------------------------5-7\|--------------------------------||5-7\---------------3-------------5-7\|--------------3--------------1-0||3-5\-00-00-00-00-0-3-33-33-33-33-3-5\|00-00-00-00-0-3-33-33-33-333-1-0||-----00-00-00-00-0-3-33-33-33-33-----|00-00-00-00-0-3-33-33-33-333-1-0| .. .. .. .. . .. .. .. .. .. .. .. .. . .. .. .. ...
1:39|-----------------------------|--------------------------------||-----------------------------|--------------------------------||-----------------------------|--------------------------------||--------------3--------------|5---------------6---------------| x1|00-00-00-00-0-3-33-33-33-33-3|5-55-55-55-55-5-6-66666-66655553||00-00-00-00-0-3-33-33-33-33-3|5-55-55-55-55-5-6-66666-66655553| .. .. .. .. . .. .. .. .. . .. .. .. .. . .....
Lead Guitar1:30|5---------------|10---------------|10---------------|5------------------||--5-------------|---8-------------|---7-------------|--5-------------8-7||----7-77-77-77-7|-----7-77-77-77-7|-----7-77-77-77-7|----7-77-77-777-x-x||----------------|-----------------|-----------------|----------------5-4| x1|----------------|-----------------|-----------------|-------------------||----------------|-----------------|-----------------|-------------------| .. .. .. . .. .. .. . .. .. .. . .. .. ...
1:40|--------------------------------------------||--------------8---8---7/8-----10-----7---8--||--------------x---x---x-x------x-----x---x--||--------------5---5---4/5------7-----4---5--||00-00-00-00---------------------------------||00-00-00-00-0---0---0-----0-0----0-0---0----| .. .. .. .. . . . . . . . .
|-------------------------------------------------||--8---8---7/8-----10-----7---8--9-99999-9998888\6||--x---x---x-x------x-----x---x--x-xxxxx-xxxxxxx-x||--5---5---4/5------7-----4---5--6-66666-6665555\3| x1|-------------------------------------------------||0---0---0-----0-0----0-0---0---------------------| . . . . . . . . .....
Chorus Build Up
Rhythm Guitar1:49|-----------------------------------------|----------------------------------||-----------------------------------------|----------------8-8-811-10-10-1010||7-77-7777-7777-7\5-5-7-77-7777-7777-7\5-5|3-33-33-5-55-55-x-x-x-x--x--x--x-x||x-xx-xxxx-xxxx-x-x-x-x-xx-xxxx-xxxx-x-x-x|3-33-33-5-55-55-5-5-5-8--7--7--7-7| x1|5-55-5555-5555-5\3-3-5-55-5555-5555-5\3-3|1-11-11-3-33-33-------------------||-----------------------------------------|----------------------------------|
1:58|-----------------------------------------|-------------------------------||-----------------------------------------|-------------------------------||7-77-7777-7777-7\5-5-7-77-7777-7777-7\5-5|3-33-33-5-55-55----------------||x-xx-xxxx-xxxx-x-x-x-x-xx-xxxx-xxxx-x-x-x|3-33-33-5-55-55-1-1-1---3-3-3--| x1|5-55-5555-5555-5\3-3-5-55-5555-5555-5\3-3|1-11-11-3-33-33-1-1-1-1-3-3-3--||-----------------------------------------|----------------1-1-1---3-3-3--|
Lead Guitar1:49|--------------------------------------------||--------------------------------------------||7-77-7777-7777-7/10-10-7-77-7777-777-7/12-12||x-xx-xxxx-xxxx-x--x--x-x-xx-xxxx-xxx-x--x--x|x1|5-55-5555-5555-5/-8--8-5-55-5555-555-5/10-10||--------------------------------------------|
|-----------------------------------------------------||-------------------------------1111111111------------||10-1010-10101010-121212-121212--x-x-x-x-x-101010-1010||-x--x-x--x-x-x-x--x-x-x--x-x-x--8-8-8-8-8--x-x-x--x-x| x1|-8--8-8--8-8-8-8-101010-101010-------------8-8-8--8-8||-----------------------------------------------------|
1:58|--------------------------------------------||--------------------------------------------||7-77-7777-7777-7/10-10-7-77-7777-777-7/12-12||x-xx-xxxx-xxxx-x--x--x-x-xx-xxxx-xxx-x--x--x|x1|5-55-5555-5555-5/-8--8-5-55-5555-555-5/10-10||--------------------------------------------|
|--------------------------------------------||--------------------------------------------||10-1010-10101010-121212-121212--------------||-x--x-x--x-x-x-x--x-x-x--x-x-x-1-1-1---3-3-3| x1|-8--8-8--8-8-8-8-101010-101010-1-1-1-1-3-3-3||-------------------------------1-1-1---3-3-3|
Chorus One
Rhythm Guitar2:08|-----------------------------------||-----------------------------------||-----------------------------------||5555555555555555-8888888888888888--||5555555555555555-8888888888888888--||5555555555555555-8888888888888888--|
2:13|--------------------------------------------------||----------------1010101010101010-11111111-13131313||-----------------x-x-x-x-x-x-x-x--x-x-x-x--x-x-x-x||0000000000000000-7-7-7-7-7-7-7-7--8-8-8-8-10101010| x2|0000000000000000----------------------------------||0000000000000000----------------------------------|
Lead Guitar2:08|---------------------------------------------------||11111111111111111111111111111111-6666666666666666--||-x-x-x-x-x-x-x-x-x-x-x-x-x-x-x-x-xxxxxxxxxxxxxxxx--||-8-8-8-8-8-8-8-8-8-8-8-8-8-8-8-8-3333333333333333--||---------------------------------------------------||---------------------------------------------------|
2:13|5-------5-----------------------------------------||----6-------6---1010101010101010-11111111-13131313||--7---7---7---7--x-x-x-x-x-x-x-x--x-x-x-x--x-x-x-x||-----------------7-7-7-7-7-7-7-7--8-8-8-8-10101010| x2|--------------------------------------------------||--------------------------------------------------|
Bridge Section One
Rhythm Guitar2:28 ttt|-------------------|---------------------------| |------5---------6--|5/6-666-5---5--------------||--------7-5-------7|----------7---7-5-5/7-5----||-------------------|------------------------7p5| x1|5/7-7-------7/8----|---------------------------||-------------------|---------------------------|
2:37 ttt ttt|-----------------|-----------------------------3-5b-5p3p1--| |----5---------6--|5/6-666-5---5--------5-555-6------------3||------7-5-------7|----------7----5--5----------------------||-----------------|-----------------------------------------| x1|7-7-------7/8----|-----------------------------------------||-----------------|-----------------------------------------|
2:53|5h6-5p3-5p3--------| |------------6p5-6\\||-------------------||-------------------| x1|-------------------||-------------------|
Lead Guitar2:28 ttt|----------------5--|5-555----------------------| |------8-6-5-------6|------8-6-8-6-5-5/6-6/8-6p5||3/5-5--------------|---------------------------||------------6/8----|---------------------------| x1|-------------------|---------------------------||-------------------|---------------------------|
2:37 ttt ttt |--------------5--|5-555----------------------------3-5b-5p3p1--| |----8-6-5-------6|------8-6-8-6-5-5/6-\5-3/5-555-6------------3||5-5--------------|---------------------------------------------||----------6/8----|---------------------------------------------| x1|-----------------|---------------------------------------------||-----------------|---------------------------------------------|
2:53|1h3-1p0-1p0--------| |------------3p1-3\\||-------------------||-------------------| x1|-------------------||-------------------|
Chorus Build Up
Rhythm Guitar2:54|-----------------------------------------|----------------------------------||-----------------------------------------|----------------8-8-811-10-10-1010||7777-7777-7777-7\5-5-7-77-7777-7777-7\5-5|3-33-33-5-55-55-x-x-x-x--x--x--x-x||xxxx-xxxx-xxxx-x-x-x-x-xx-xxxx-xxxx-x-x-x|3-33-33-5-55-55-5-5-5-8--7--7--7-7| x1|5555-5555-5555-5\3-3-5-55-5555-5555-5\3-3|1-11-11-3-33-33-------------------||-----------------------------------------|----------------------------------|
3:03|-----------------------------------------|-------------------------------||-----------------------------------------|-------------------------------||7-77-7777-7777-7\5-5-7-77-7777-7777-7\5-5|3-33-33-5-55-55----------------||x-xx-xxxx-xxxx-x-x-x-x-xx-xxxx-xxxx-x-x-x|3-33-33-5-55-55-1-1-1---3-3-3--| x1|5-55-5555-5555-5\3-3-5-55-5555-5555-5\3-3|1-11-11-3-33-33-1-1-1-1-3-3-3--||-----------------------------------------|----------------1-1-1---3-3-3--|
Lead Guitar 2:56|--------------------------------------------||--------------------------------------------||---------------7/10-10-7-77-7777-777-7/12-12||---------------x--x--x-x-xx-xxxx-xxx-x--x--x|x1|---------------5/-8--8-5-55-5555-555-5/10-10||--------------------------------------------|
|-----------------------------------------------------||-------------------------------1111111111------------||10-1010-10101010-121212-121212--x-x-x-x-x-101010-1010||-x--x-x--x-x-x-x--x-x-x--x-x-x--8-8-8-8-8--x-x-x--x-x| x1|-8--8-8--8-8-8-8-101010-101010-------------8-8-8--8-8||-----------------------------------------------------|
3:03|--------------------------------------------||--------------------------------------------||7-77-7777-7777-7/10-10-7-77-7777-777-7/12-12||x-xx-xxxx-xxxx-x--x--x-x-xx-xxxx-xxx-x--x--x|x1|5-55-5555-5555-5/-8--8-5-55-5555-555-5/10-10||--------------------------------------------|
|--------------------------------------------||--------------------------------------------||10-1010-10101010-121212-121212--------------||-x--x-x--x-x-x-x--x-x-x--x-x-x-1-1-1---3-3-3| x1|-8--8-8--8-8-8-8-101010-101010-1-1-1-1-3-3-3||-------------------------------1-1-1---3-3-3|
Chorus Two
Rhythm Guitar3:13|-----------------------------------||-----------------------------------||-----------------------------------||5555555555555555-8888888888888888--||5555555555555555-8888888888888888--||5555555555555555-8888888888888888--|
3:18|--------------------------------------------------||----------------1010101010101010-11111111-13131313||-----------------x-x-x-x-x-x-x-x--x-x-x-x--x-x-x-x||0000000000000000-7-7-7-7-7-7-7-7--8-8-8-8-10101010| x1|0000000000000000----------------------------------||0000000000000000----------------------------------|
Lead Guitar3:13|---------------------------------------------------||11111111111111111111111111111111-6666666666666666--||-x-x-x-x-x-x-x-x-x-x-x-x-x-x-x-x-xxxxxxxxxxxxxxxx--||-8-8-8-8-8-8-8-8-8-8-8-8-8-8-8-8-3333333333333333--||---------------------------------------------------||---------------------------------------------------|
3:18|5-------5-----------------------------------------||----6-------6---1010101010101010-11111111-13131313||--7---7---7---7--x-x-x-x-x-x-x-x--x-x-x-x--x-x-x-x||-----------------7-7-7-7-7-7-7-7--8-8-8-8-10101010| x1|--------------------------------------------------||--------------------------------------------------|
Bridge Section Two Rhythm Guitar (Played Clean)
3:32 3:38|-------------------|---------------------------| |------5---------6--|------6-5---5--------------||--------7-5-------7|----------7---7-5-5/7-5----||-------------------|------------------------7p5| x1|5/7-7-------7/8----|---------------------------||-------------------|---------------------------|
3:42 |-----------------|5555-5333| |----5---------6--|6666-6555||------7-5-------7|---------||-----------------|---------| x1|7-7-------7/8----|---------||-----------------|---------|
Lead Guitar (Played Clean)
3:32 3:38 |----------------5--|---------------------------| |------8-6-5-------6|------8-6-8-6-5-5/6-6/8-6p5||3/5-5--------------|---------------------------||------------6/8----|---------------------------| x1|-------------------|---------------------------||-------------------|---------------------------|
3:42 |--------------5--|5555-5333| |----8-6-5-------6|6666-6555||5-5--------------|---------||----------6/8----|---------| x1|-----------------|---------||-----------------|---------|
Outro
Rhythm Guitar3:48|----------------------------------------|------------------------------------||----------------------------------------|------------------------------------||----7\------------------------------5-7\|---------------------------------8-7||2-5-7\---------------3--------------5-7\|------------------3--------------x-x| x1|0-3-5\-00-00-00-00-0-3-33-33-33-333-3-5\|000-000-000-000-0-3-33-33-33-333-6-5||-------00-00-00-00-0-3-33-33-33-333-----|000-000-000-000-0-3-33-33-33-333----| .. .. .. .. . .. .. .. ... ... ... ... ... . .. .. .. ...
3:59|-------------------------------|-----------------------------------------||----------------------------5-6|-----------------------------------------||----------------------------x-x|------------------------5h7-5v-----------||--------------3-------------2-3|--------------3----------------7p5-5h7---| x1|--------------3-33-33-33-33----|00-00-00-00-0-3-33-33-3----------------5v||00-00-00-00-0-3-33-33-33-33----|00-00-00-00-0-3-33-33-3------------------| .. .. .. .. .. .. .. .. . .. .. .
4:09|--------------------------------|-------------------------------||--------------------------------|-------------------------------||--------------------------------|----------------------------8-7||--------------------------------|----------------------------x-x| x1|----------------------------3-5\|----------------------------6-5||00-00-00-00-0-3-33-33-33-33-----|00-00-00-00-0-3-33-33-33-33----|
4:18|--------------------------------|--------------------------------------||--------------------------------|--------------------------------------||--------------------------------|---------------------5h7-5v-----------||--------------------------------|----------------------------7p5-5h7---| x1|----------------------------3-5\|------------------------------------5v||00-00-00-00-0-3-33-33-33-33-----|00-00-00-00-0-3-33-3------------------|
Lead Guitar3:48|----------------------------------------|------------------------------------||----------------------------------------|---------------------------------8-7||----7\------------------------------5-7\|---------------------------------x-x||2-5-7\---------------3--------------5-7\|------------------3--------------5-4| x1|0-3-5\-00-00-00-00-0-3-33-33-33-333-3-5\|000-000-000-000-0-3-33-33-33-333----||-------00-00-00-00-0-3-33-33-33-333-----|000-000-000-000-0-3-33-33-33-333----| .. .. .. .. . .. .. .. ... ... ... ... ... . .. .. .. ...
3:59|---------------------------------|----------------------------------------||---------------------------------|------------------------5/6-5-3p1-1h3---||-----------------------------5-7\|----------------------------------------||--------------3--------------5-7\|--------------3-----------------------4v| x1|--------------3-33-33-33-333-3-5\|00-00-00-00-0-3-33-33-3-----------------||00-00-00-00-0-3-33-33-33-333-----|00-00-00-00-0-3-33-33-3-----------------|
.. .. .. ... .. .. .. .. . .. .. .4:09|--------------------------------|-------------------------------||--------------------------------|-------------------------------||--------------------------------|------------------------------8||--------------------------------|------------------------------x| x1|----------------------------3-5\|------------------------------6||00-00-00-00-0-3-33-33-33-33-----|00-00-00-00-0-3-33-33-33-33-3--|
4:18 |----------------------------------|--------------------------------------||--------------6-66-66-66-66-8-10\\|--------------66-66-6-5/6-5-3p1-1h3---||77-77-77-77-5-x-xx-xx-xx-xx-x--x--|77-77-77-75-5-xx-xx-x-----------------||xx-xx-xx-xx-x-3-33-33-33-33-5--7\\|xx-xx-xx-xx-x-33-33-3---------------4v| x1|55-55-55-55-3---------------------|55-55-55-53-3-------------------------||----------------------------------|--------------------------------------|
Please rate this tab:
x1.0