Fei Comodo - Break The Ice tab version 3

Fei Comodo
Break The Ice
Guitar Tab
Drop D Tuning
Tabbed By Jonathan Mack

This Is The Version From The 'They All Have Two Faces' Album.

. Palm Mute
x Muted String (Dead Note)
/ Slide Up
\ Slide Down
h Hammer On
p Pull Off
v Vibrato
* Pinch Harmonic
+ Natural Harmonic

Note: During The Intro And Second Chorus There Is A Third Guitar.



Intro


Rhythm Guitar0:00|---------------------------------------------------------------------||---------------------------------------------------------------------||---------------------------------------------------------------------||6666-666-6666666-4444-444-4444444-2222-222-2222222-1111-111-2222-4444| x1|6666-666-6666666-4444-444-4444444-2222-222-2222222-1111-111-2222-4444||6666-666-6666666-4444-444-4444444-2222-222-2222222-1111-111-2222-4444|
|-----------------------------------------------------------------------||-----------------------------------------------------------------------||-----------------------------------------------------------------------||6666-666-6666666-4444-444-4444444-2222-222-2222222-1111-111-2-2-2-4-4-4| x2|6666-666-6666666-4444-444-4444444-2222-222-2222222-1111-111-2-2-2-4-4-4||6666-666-6666666-4444-444-4444444-2222-222-2222222-1111-111-2-2-2-4-4-4|
Lead Guitar0:00|---------------------------------------------------------------||12121212-121212-12121212121212-11111111-111111-11111111111111--||-x-x-x-x--x-x-x--x-x-x-x-x-x-x--x-x-x-x--x-x-x--x-x-x-x-x-x-x--||-9-9-9-9--9-9-9--9-9-9-9-9-9-9--8-8-8-8--8-8-8--8-8-8-8-8-8-8--||---------------------------------------------------------------||---------------------------------------------------------------|
|--------------------------------------------------------------||9-9-9-9--9-9-9--9-9-9-9-9-9-9-11111111-111111-9-9-9-9-11111111||x-x-x-x--x-x-x--x-x-x-x-x-x-x--x-x-x-x--x-x-x-x-x-x-x--x-x-x-x| x1|6-6-6-6--6-6-6--6-6-6-6-6-6-6--8-8-8-8--8-8-8-6-6-6-6--8-8-8-8||--------------------------------------------------------------||--------------------------------------------------------------|
|---------------------------------------------------------------||12121212-121212-12121212121212-11111111-111111-11111111111111--||-x-x-x-x--x-x-x--x-x-x-x-x-x-x--x-x-x-x--x-x-x--x-x-x-x-x-x-x--||-9-9-9-9--9-9-9--9-9-9-9-9-9-9--8-8-8-8--8-8-8--8-8-8-8-8-8-8--||---------------------------------------------------------------||---------------------------------------------------------------|
|-------------------------------------------------------------||9-9-9-9--9-9-9--9-9-9-9-9-9-9-11111111-111111--9-9-9-11-11-11||x-x-x-x--x-x-x--x-x-x-x-x-x-x--x-x-x-x--x-x-x--x-x-x--x--x--x| x1|6-6-6-6--6-6-6--6-6-6-6-6-6-6--8-8-8-8--8-8-8--6-6-6--8--8--8||-------------------------------------------------------------||-------------------------------------------------------------|
0:24|------------------------|--------------------------||---9-11\9-14-16-14-12-14|---9-11\9-14-16-14-12-14--||88-x--x-x--x--x--x--x--x|88-x--x-x--x--x--x--x--x--||xx-6--8\6-11-13-11--9-11|xx-6--8\6-11-13-11--9-11--||66----------------------|66------------------------||------------------------|--------------------------|
|------------------------|-----------------------||---9-11\9-14-16-14-12-14|---9--------999--111111||99-x--x-x--x--x--x--x--x|88-x--------xxx---x-x-x||xx-6--8\6-11-13-11--9-11|xx-6--8*-6v-666---8-8-8| x1|77----------------------|66---------------------||------------------------|-----------------------|
Guitar Three0:24|---------------------|---------------------|-----------------------||---------------------|---------------------|-----------------------||---------------------|---------------------|-----------------------||----9-----8-8/9-8-6-8|----9-----8-8/9-8-6-8|6-6-9-----8-8/9-8-6-8--||6-6---6/7------------|6-6---6/7------------|------6/7--------------||---------------------|---------------------|-----------------------|
|-----------------------||-----------9-9-9-111111||-----------x-x-x--x-x-x||----9------6-6-6--8-8-8| x1|6-6---6/7--------------||-----------------------|
Verse One
Rhythm Guitar0:36|------------------|--------------------|-------------------------||------------------|--------------------|-------------------------||------------------|--------------------|-------------------------||-9-----8-8/9-8-6-8|---9-----8-8/9-8-6-8|-------------------------||---6/7------------|-----6/7------------|11-13-9\-6-6-666-6-6--6--||------------------|66------------------|11-13-9\-6-6-666-6-6--6--|
. . ... . . . 0:48|----------------------------|--------------------|----------------------||----------------------------|--------------------|----------------------||----------------------------|--------------------|----------------------||---------1-1-1--1-1-1--1-1-1|---9-----8-8/9-8-6-8|---9-----8-8/9-8-6-8--||11-13-8\-1-1-1--1-1-1--1-1-1|-----6/7------------|-----6/7--------------||11-13-8\-1-1-1--1-1-1--1-1-1|66------------------|66--------------------|
|-----------------------|----------------------------||-----------------------|----------------------------||-----------------------|----------------------------||-----------------------|---------1-1-1--1-1-1--1-1-1| x1|11-13-9\-6-6-666-6-6--6|11-13-8\-1-1-1--1-1-1--1-1-1||11-13-9\-6-6-666-6-6--6|11-13-8\-1-1-1--1-1-1--1-1-1| . . ... . . .
Lead Guitar0:36|----------------------------|------------------------------|-------------------------||-9-11\9-14-14/16-14-12-12/14|---9-11\9-14-14/16-14-12-12/14|14/16-12-----------------||-x--x-x--x--x--x--x--x--x--x|88-x--x-x--x--x--x--x--x--x--x|-x--x--x-----------------||-6--8\6-11-11/13-11--9--9/11|xx-6--8\6-11-11/13-11--9--9/11|11/13--9-----------------||----------------------------|66----------------------------|---------6-6-666-6-6--6--||----------------------------|------------------------------|---------6-6-666-6-6--6--|
. . ... . . . 0:48|----------------------------|------------------------------|--------------------------------||14/16-11--------------------|---9-11\9-14-14/16-14-12-12/14|---9-11\9-14-14/16-14-12-12/14--||-x--x--x--------------------|88-x--x-x--x--x--x--x--x--x--x|88-x--x-x--x--x--x--x--x--x--x--||11/13--8-1-1-1--1-1-1--1-1-1|xx-6--8\6-11-11/13-11--9--9/11|xx-6--8\6-11-11/13-11--9--9/11--||---------1-1-1--1-1-1--1-1-1|66----------------------------|66------------------------------||---------1-1-1--1-1-1--1-1-1|------------------------------|--------------------------------|
|-----------------------|----------------------------||14/16-12---------------|14/16-11--------------------||-x--x--x---------------|-x--x--x--------------------||11/13--9---------------|11/13--8-1-1-1--1-1-1--1-1-1| x1|---------6-6-666-6-6--6|---------1-1-1--1-1-1--1-1-1||---------6-6-666-6-6--6|---------1-1-1--1-1-1--1-1-1| . . ... . . .
Pre Chorus
Rhythm Guitar1:00|------------------------------|-----------||------------------------------|-----------||------------------------------|-----------||222-222-222-2222--------------|1-1-1-4-4-4| x1|222-222-222-2222--------------|1-1-1-4-4-4||222-222-222-2222-444-4v-444-4v|1-1-1-4-4-4| ... ...
Lead Guitar1:00|------------------------------|-----------||------------------------------|-----------||444-444-666-4444--------------|3-3-3-6-6-7||xxx-xxx-xxx-xxxx--------------|x-x-x-x-x-x| x1|222-222-444-2222-----4------4-|1-1-1-4-4-5||-----------------444----444---|-----------| ... ...
Chorus One
Rhythm Guitar1:06|---------------------------------------------------------------------||---------------------------------------------------------------------||---------------------------------------------------------------------||6666-666-6666666-4444-444-4444444-2222-222-2222222-1111-111-2222-4444| x1|6666-666-6666666-4444-444-4444444-2222-222-2222222-1111-111-2222-4444||6666-666-6666666-4444-444-4444444-2222-222-2222222-1111-111-2222-4444|
|-----------------------------------------------------------------------||-----------------------------------------------------------------------||-----------------------------------------------------------------------||6666-666-6666666-4444-444-4444444-2222-222-2222222-1111-111-2-2-2-4-4-4| x1|6666-666-6666666-4444-444-4444444-2222-222-2222222-1111-111-2-2-2-4-4-4||6666-666-6666666-4444-444-4444444-2222-222-2222222-1111-111-2-2-2-4-4-4|
Lead Guitar1:06|---------------------------------------------------------------||12121212-121212-12121212121212-11111111-111111-11111111111111--||-x-x-x-x--x-x-x--x-x-x-x-x-x-x--x-x-x-x--x-x-x--x-x-x-x-x-x-x--||-9-9-9-9--9-9-9--9-9-9-9-9-9-9--8-8-8-8--8-8-8--8-8-8-8-8-8-8--||---------------------------------------------------------------||---------------------------------------------------------------|
|--------------------------------------------------------------||9-9-9-9--9-9-9--9-9-9-9-9-9-9-11111111-111111-9-9-9-9-11111111||x-x-x-x--x-x-x--x-x-x-x-x-x-x--x-x-x-x--x-x-x-x-x-x-x--x-x-x-x| x1|6-6-6-6--6-6-6--6-6-6-6-6-6-6--8-8-8-8--8-8-8-6-6-6-6--8-8-8-8||--------------------------------------------------------------||--------------------------------------------------------------|
|---------------------------------------------------------------||12121212-121212-12121212121212-11111111-111111-11111111111111--||-x-x-x-x--x-x-x--x-x-x-x-x-x-x--x-x-x-x--x-x-x--x-x-x-x-x-x-x--||-9-9-9-9--9-9-9--9-9-9-9-9-9-9--8-8-8-8--8-8-8--8-8-8-8-8-8-8--||---------------------------------------------------------------||---------------------------------------------------------------|
|-------------------------------------------------------------||9-9-9-9--9-9-9--9-9-9-9-9-9-9-11111111-111111--9-9-9-11-11-11||x-x-x-x--x-x-x--x-x-x-x-x-x-x--x-x-x-x--x-x-x--x-x-x--x--x--x| x1|6-6-6-6--6-6-6--6-6-6-6-6-6-6--8-8-8-8--8-8-8--6-6-6--8--8--8||-------------------------------------------------------------||-------------------------------------------------------------|
Break Down
Rhythm Guitar1:30|---------------------|-------------------|-----------------||---------------------|-------------------|-----------------||----------------5---5|----------------4-4|----------------4||----------------4---4|----------------3-3|----------------3| x1|---------------------|6-4-0-x-6-4-0-x----|6-4-0-x-6-4-0-x--||6-4-0-x-6-4-0-x------|6-4-0-x-6-4-0-x----|6-4-0-x-6-4-0-x--|
|-------------------|------------------||-------------------|------------------||----------------4-4|------------------||----------------3-3|------------------| x1|6-4-0-x-6-4-0-x----|6-4-0-x-6-4-0-x---||6-4-0-x-6-4-0-x----|6-4-0-x-6-4-0-x-9\|
1:43|---------------------|-------------------||---------------------|-------------------||---------------------|-------------------||---------------------|-------------------| x2|6-4-0-0-6-4-0-0------|6-4-0-0-6-4-0-0----||6-4-0-0-6-4-0-0-9-9\6|6-4-0-0-6-4-0-0-9\6|
1:53|---------|--------------------------||---------|--------------------------||4---4/6--|444--4-----3-3/4-3--------||--6-----8|-------1/2---------4/6v-\\| x1|---------|--------------------------||---------|--------------------------| ... +++
1:56|---------------------------------||9999-11111111-1212-1111-12-11-9-9||xxxx--x-x-x-x--x-x--x-x--x--x-x-x||6666--8-8-8-8--9-9--8-8--9--8-6-6| x1|---------------------------------||---------------------------------|
Lead Guitar 1:32|---------------------|-------------------|-----------------||---------------------|-------------------|-----------------||-----------------4---|----------------4-4|----------------4||-----------------3---|----------------3-3|----------------3| x1|---------------------|6-4-0-x-6-4-0-x----|6-4-0-x-6-4-0-x--||---------------------|6-4-0-x-6-4-0-x----|6-4-0-x-6-4-0-x--|
|-------------------|------------------||-------------------|------------------||----------------4-4|------------------||----------------3-3|------------------| x1|6-4-0-x-6-4-0-x----|6-4-0-x-6-4-0-x---||6-4-0-x-6-4-0-x----|6-4-0-x-6-4-0-x-9\|
1:43|---------------------|-------------------||---------------------|-------------------||---------------------|-------------------||---------------------|-------------------| x2|6-4-0-0-6-4-0-0------|6-4-0-0-6-4-0-0----||6-4-0-0-6-4-0-0-9-9\6|6-4-0-0-6-4-0-0-9\6|
1:53|---------|------2/4--------------||---------|----4-----2-2/4-2------||1---1/3--|444---------------4v-\\||--2-----4|-----------------------| x1|---------|-----------------------||---------|-----------------------| ... +++
1:56|---------------------------||99999999-12121212-1414-2121||xxxxxxxx--x-x-x-x--x-x--x-x||66666666--9-9-9-9-1111-1818| x1|---------------------------||---------------------------|
Verse Two
Rhythm Guitar1:59|--------------------|--------------------|-------------------------||--------------------|--------------------|-------------------------||--------------------|--------------------|-------------------------||---9-----8-8/9-8-6-8|---9-----8-8/9-8-6-8|-------------------------||-----6-7------------|-----6-7------------|11-13-9\-6-6-666-6-6--6--||66------------------|66------------------|11-13-9\-6-6-666-6-6--6--| . . ... . . .
|----------------------------||----------------------------||----------------------------||---------1-1-1--1-1-1--1-1-1| x2|11-13-8\-1-1-1--1-1-1--1-1-1||11-13-8\-1-1-1--1-1-1--1-1-1|
Lead Guitar1:59|------------------------------|------------------------------|-------------------------||---9-11\9-14-14/16-14-12-12/14|---9-11\9-14-14/16-14-12-12/14|14/16-12-----------------||88-x--x-x--x--x--x--x--x--x--x|88-x--x-x--x--x--x--x--x--x--x|-x--x--x-----------------||xx-6--8\6-11-11/13-11--9--9/11|xx-6--8\6-11-11/13-11--9--9/11|11/13--9-----------------||66----------------------------|66----------------------------|---------6-6-666-6-6--6--||------------------------------|------------------------------|---------6-6-666-6-6--6--| . . ... . . .
|----------------------------||14/16-11--------------------||-x--x--x--------------------||11/13--8-1-1-1--1-1-1--1-1-1| x2|---------1-1-1--1-1-1--1-1-1||---------1-1-1--1-1-1--1-1-1|
Pre Chorus
Rhythm Guitar2:23|------------------------------|-----------||------------------------------|-----------||------------------------------|-----------||222-222-222-2222--------------|1-1-1-4-4-4| x1|222-222-222-2222--------------|1-1-1-4-4-4||222-222-222-2222-444-4v-444-4v|1-1-1-4-4-4| ... ...
Lead Guitar2:23|------------------------------|-----------||------------------------------|-----------||444-444-666-4444--------------|3-3-3-6-6-7||xxx-xxx-xxx-xxxx--------------|x-x-x-x-x-x| x1|222-222-444-2222-----4------4-|1-1-1-4-4-5||-----------------444----444---|-----------| ... ...
Bridge Section Part One
Rhythm Guitar (Played Clean)2:29|-------------------------------|-------------------------------||----4p2-------------4p2--------|----4p2-------------4p2--------||--------3h4-------------3h4----|--------3h4-------------3h4----||----------------------------4p1|----------------------------4p1| x1|-------------------------------|-------------------------------||6-6---------6-9\6-6------------|6-6---------6-9\6-6------------| . . . . . . . .
|-------------------------------|-------------------------------||----4p2-------------4p2--------|----4p2-------------4p2--------||--------3h4-------------3h4----|--------3h4-------------3h4----||----------------------------4p1|----------------------------4p1| x1|-------------------------------|-------------------------------||2-2---------2-6\2-2------------|2-2---------2-6\2-2------------| . . . . . . . .
Lead Guitar (Played Clean)2:29|-------------------|-----------||-------------------|-----------||----8p6------------|8p6--------||--------8h9--------|----8p6----| x4|-------------------|--------9p6||6-6---------6-9p6-6|-----------| . . . . . .
Part Two
Rhythm Guitar2:41|-------------------------------|-------------------------------||-------------------------------|-------------------------------||----4p3-3p1---------4p3-3p1----|-------------------------------||----------------------------4/6|-------------------------------| x1|-------------------------------|-------------------------------||6-6---------6-9\6-6------------|6-6---------6-9\6-6------------| . . . . . . . .
2:47|-------------------------------|-------------------------------||-------------------------------|-------------------------------||----4p3-3p1---------4p3-3p1----|-------------------------------||----------------------------4/6|-------------------------------| x1|-------------------------------|-------------------------------||2-2---------2-6\2-2------------|2-2---------------2-------9\6-6| . . . . . . .
Lead Guitar2:41|-------------------------------|-------------------------------||-------------------------------|----4p2-------------4p2--------||-------------------------------|--------3h4-------------3h4----||-------------------------------|----------------------------4p1| x1|-------------------------------|-------------------------------||6-6----------9\6-6-------------|6-6---------6-9\6-6------------| . . . . . . .
2:47|-------------------------------|-------------------------------||-------------------------------|----4p2-------------4p2--------||-------------------------------|--------3h4-------------3h4----||-------------------------------|----------------------------4p1| x1|-------------------------------|-------------------------------||2-2--------2-------------------|6-6---------6-9\6-6------------| . . . . . . .
******************************************************************************* If You Want To Play Both Rhythm And Lead Guitars During 'Part Two' Play This...
2:41|-------------------------------|-------------------------------||-------------------------------|----4p2-------------4p2--------||----4p3-3p1---------4p3-3p1----|--------3h4-------------3h4----||----------------------------4/6|----------------------------4p1| x1|-------------------------------|-------------------------------||6-6---------6-9\6-6------------|6-6---------6-9\6-6------------| . . . . . . . .
2:47|-------------------------------|-------------------------------||-------------------------------|----4p2-------------4p2--------||----4p3-3p1---------4p3-3p1----|--------3h4-------------3h4----||----------------------------4/6|----------------------------4p1| x1|-------------------------------|-------------------------------||2-2---------2-6\2-2------------|6-6---------6-9\6-6------------| . . . . . . . .
******************************************************************************* Part Three
Rhythm Guitar2:53|-------------------------------|-------------------------------||-------------------------------|-------------------------------||----4p3-3p1---------4p3-3p1----|----4p3-3p1---------4p3-3p1----||----------------------------4/6|----------------------------4/6| x1|-------------------------------|-------------------------------||6-6---------6-9\6-6------------|6-6---------6-9\6-6------------| . . . . . . . .
2:59|-------------------------------|----------------------------||-------------------------------|----------------------------||----4p3-3p1---------4p3-3p1----|----4p3-3p1---3/4-3h4-----6*||-------------------------------|----------------------6p4---| x1|-------------------------------|----------------------------||2-2---------2-6\2-2------------|2-2---------2---------------| . . . . . . .
Lead Guitar2:53|-------------------------------|-------------------------------||----4p2-------------4p2--------|----4p2-------------4p2--------||--------3h4-------------3h4----|--------3h4-------------3h4----||----------------------------4p1|----------------------------4p1| x1|-------------------------------|-------------------------------||6-6---------6-9\6-6------------|6-6---------6-9\6-6------------| . . . . . . . .
2:59|-------------------------------|----------------------------||----4p2-------------4p2--------|----4p2-------2/4-2h4-----4*||--------3h4-------------3h4----|--------3h4-----------4p3---||----------------------------4p1|----------------------------| x1|-------------------------------|----------------------------||2-2---------2-6\2-2------------|6-6---------6---------------| . . . . . . .
Chorus Two
Rhythm Guitar3:05|---------------------------------------------------------------------||---------------------------------------------------------------------||---------------------------------------------------------------------||6666-666-6666666-4444-444-4444444-2222-222-2222222-1111-111-2222-4444| x2|6666-666-6666666-4444-444-4444444-2222-222-2222222-1111-111-2222-4444||6666-666-6666666-4444-444-4444444-2222-222-2222222-1111-111-2222-4444|
Let Ring|-----------------------------------------------------------------------|--------||-----------------------------------------------------------------------|--------||-----------------------------------------------------------------------|--------||6666-666-6666666-4444-444-4444444-2222-222-2222222-1111-111-2-2-2-4-4-4|6-------| x1|6666-666-6666666-4444-444-4444444-2222-222-2222222-1111-111-2-2-2-4-4-4|6-------||6666-666-6666666-4444-444-4444444-2222-222-2222222-1111-111-2-2-2-4-4-4|6-------|
Lead Guitar3:05|---------------------------------------------------------------||12121212-121212-12121212121212-11111111-111111-11111111111111--||-x-x-x-x--x-x-x--x-x-x-x-x-x-x--x-x-x-x--x-x-x--x-x-x-x-x-x-x--||-9-9-9-9--9-9-9--9-9-9-9-9-9-9--8-8-8-8--8-8-8--8-8-8-8-8-8-8--||---------------------------------------------------------------||---------------------------------------------------------------|
|--------------------------------------------------------------||9-9-9-9--9-9-9--9-9-9-9-9-9-9-11111111-111111-9-9-9-9-11111111||x-x-x-x--x-x-x--x-x-x-x-x-x-x--x-x-x-x--x-x-x-x-x-x-x--x-x-x-x| x1|6-6-6-6--6-6-6--6-6-6-6-6-6-6--8-8-8-8--8-8-8-6-6-6-6--8-8-8-8||--------------------------------------------------------------||--------------------------------------------------------------|
|---------------------------------------------------------------||12121212-121212-12121212121212-11111111-111111-11111111111111--||-x-x-x-x--x-x-x--x-x-x-x-x-x-x--x-x-x-x--x-x-x--x-x-x-x-x-x-x--||-9-9-9-9--9-9-9--9-9-9-9-9-9-9--8-8-8-8--8-8-8--8-8-8-8-8-8-8--||---------------------------------------------------------------||---------------------------------------------------------------|
|-------------------------------------------------------------||9-9-9-9--9-9-9--9-9-9-9-9-9-9-11111111-111111--9-9-9-11-11-11||x-x-x-x--x-x-x--x-x-x-x-x-x-x--x-x-x-x--x-x-x--x-x-x--x--x--x| x1|6-6-6-6--6-6-6--6-6-6-6-6-6-6--8-8-8-8--8-8-8--6-6-6--8--8--8||-------------------------------------------------------------||-------------------------------------------------------------|
3:29|------------------------|--------------------------||---9-11\9-14-16-14-12-14|---9-11\9-14-16-14-12-14--||88-x--x-x--x--x--x--x--x|88-x--x-x--x--x--x--x--x--||xx-6--8\6-11-13-11--9-11|xx-6--8\6-11-13-11--9-11--||66----------------------|66------------------------||------------------------|--------------------------|
Let Ring|------------------------|----------------------|--------||---9-11\9-14-16-14-12-14|---9-------999--111111|--------||99-x--x-x--x--x--x--x--x|88-x-------xxx---x-x-x|--------||xx-6--8\6-11-13-11--9-11|xx-6-8*-6v-666---8-8-8|6-------| x1|77----------------------|66--------------------|6-------||------------------------|----------------------|6-------|
Guitar Three3:29|---------------------|---------------------|-----------------------||---------------------|---------------------|-----------------------||---------------------|---------------------|-----------------------||----9-----8-8/9-8-6-8|----9-----8-8/9-8-6-8|6-6-9-----8-8/9-8-6-8--||6-6---6/7------------|6-6---6/7------------|------6/7--------------||---------------------|---------------------|-----------------------|
Let Ring|-----------------------|--------||-----------9-9-9-111111|--------||-----------x-x-x--x-x-x|--------||----9------6-6-6--8-8-8|6-------| x1|6-6---6/7--------------|6-------||-----------------------|6-------|
Tap to rate this tab
 
# A B C D E F G H I J K L M N O P Q R S T U V W X Y Z