Fellsilent - Age Of Deception tab

Age of Deception by Fellsilent
Album: The Hidden Words
Tab: Foster (bornofmaya) - http://www.last.fm/user/bornofmaya

Tuning: Drop G# (G# D# G# C# F A#)
Notes: Tuning might be wrong. I also didn't tab all the ambient riffs.

Legend:
*  - palm-mute
b  - bend
br - bend-release
X  - dead-note
|| - open-close bar

(x4)||----------------------------------------------------------|||----------------------------------------------------------|||----------------------------------------------------------|||----------------------------------------------------------|||-5--5------------------------------------5-----5----------|||----------0--0-----0-----0-----0--1br----------------0--0-| * * *
|----------------------------------------------------------|||----------------------------------------------------------|||----------------------------------------------------------|||----------------------------------------------------------|||----------------------------------------------------------|||-0--1-----1br----0--0-----0--1-----1br----0--0-----0--1br-|| * * * * *
(x8)||-------------------------------------||||-------------------------------------||||-------------------------------------||||-1-----------1-----------------------||||-------------------------------------||||----1-----------1b--------------1--1-|| * *
(x4)||-------------------------------------------------------------|||-------------------------------------------------------------|||-------------------------------------------------------------|||-1-----------1------------------------------1-----------1----|||-------------------------------------------------------------|||----1-----------1b--------------1--1-----------1-----------1-| * *
|------------------------------|||------------------------------|||------------------------------|||------------------------------|||------------------------------|||-1--1-----1-----1--1-----1--1-|| * * * * *
(x2)Note: Listen and follow.||---|----|---|----|----|----|----||||---|----|---|----|----|----|----||||-7-|-15-|-7-|-17-|-15-|-14-|-12-||||---|----|---|----|----|----|----||||-5-|-13-|-5-|-15-|-13-|-12-|-10-||||---|----|---|----|----|----|----||
(x2)||-------------------------------------------------------|||-------------------------------------------------------|||-------------------------------------------------------|||-------------------------------------------------------|||-5------------------------------------5-----5----------|||-------0--0-----0-----0-----0--1br----------------0--0-| * * *
|---------------------------------------------------------------|||---------------------------------------------------------------|||---------------------------------------------------------------|||---------------------------------------------------------------|||-------------------------------------------------------------5-|||-0--1-----1br----0--0-----0--1-----1br----0--0-----0--1br------|| * * * * *
||------------------||||------------------||||------------------||||------------------||||------------------||||-0----------------||
||------------------------------------------------------|||------------------------------------------------------|||------------------------------------------------------|||------------------------------------------------------|||-4-----5----------------------------------------------|||----1------1----1----1----1-------1----1-------1----1-| *
|---------------------------------------------------|||---------------------------------------------------|||---------------------------------------------------|||---------------------------------------------------|||-4-----5-------------------------------------------|||----1------1----1----1----1-------1-----1--------1-|| *
(x2)||-------------------------------------------||||-------------------------------------------||||-------------------------------------------||||--------------------------1----------------||||-4-----5-----------------------------------||||----1------1----1----1----1----------------|| *
||-------------------------------------------------------------|||-------------------------------------------------------------|||-------------------------------------------------------------|||-------------------------------------------------------------|||-4-----5-----------------------------------------------------|||----1------1----1----1----1-------1--X--1--------1---------1-| *
|---------------------------------------------------|||---------------------------------------------------|||---------------------------------------------------|||---------------------------------------------------|||-4-----5-------------------------------------------|||----1------1----1----1----1-------1--X--1--------1-|| *
||--------------------------------------------------------|||--------------------------------------------------------|||--------------------------------------------------------|||------------------------------------2----2-------3----4-|||-4-----5------------------------------------------------|||----1------1----1----1----1---------2----2-------3----4-| *
|-----------------------------------------------------------||-----------------------------------------------------------||-----------------------------------------------------------||------------------------------------2----2-------2-------2-||-4-----5---------------------------------------------------||----1------1----1----1----1---------2----2-------2-------2-| *
|--------------------------------------------------------||--------------------------------------------------------||--------------------------------------------------------||------------------------------------2----2-------3----4-||-4-----5------------------------------------------------||----1------1----1----1----1---------2----2-------3----4-| *
|----------------------------||----------------------------||----------------------------||----------------------------||-4-----5--------------------||----1------1----1----1----1-| *
(x2)|----------------------------------------------------------------||-----------------|||----------------------------------------------------------------||-----------------|||----------------------------------------------------------------||-----------------|||-2-----2--------2--------2-----2-----2--------2--------2--------||-2---2---2-------|||----------------------------------------------------------------||-----------------|||-2-----2--------2--------2-----2-----2--------2--------2--------||-2---2---2-----0-||
(x2)||---------------------------------------------------------|||---------------------------------------------------------|||---------------------------------------------------------|||---------------------------------------------------------|||-5-------------------------------------------------------|||----X-----0----X--------------0----X-----0----X--------X-|
|--------------------------------------------------------|||--------------------------------------------------------|||--------------------------------------------------------|||--------------------------------------------------------|||--------------------------------------------------------|||-0----X-----0----X-----------0----X-----0----X-----X--X-||
(x4)||----------------------------|||----------------------------|||----------------------------|||----------------------------|||------5---------5---------5-|||-0---------0-----------0----|
|----------------------------||----------------------------||----------------------------||----------------------------||------5---------5---------5-||-2---------2-----------2----|
|----------------------------||----------------------------||----------------------------||----------------------------||------5---------5---------5-||-3---------3-----------3----|
|----------------------------|||----------------------------|||----------------------------|||----------------------------|||------5---------7---------7-|||-3---------3-----------3----||
||-----------------------------------------------------------|||-----------------------------------------------------------|||-----------------------------------------------------------|||-----------------------------------------------------------|||-----------------------------------------------------------|||-0----X-----0----X--------------0----X-----0----X--------X-|
|--------------------------------------------------------||--------------------------------------------------------||--------------------------------------------------------||--------------------------------------------------------||--------------------------------------------------------||-0----X-----0----X-----------0----X-----0----X-----X--X-|
|---------------------------------------------------------||---------------------------------------------------------||---------------------------------------------------------||---------------------------------------------------------||-5-------------------------------------------------------||----X-----0----X--------------0----X-----0----X--------X-|
|------------------------------------------|||------------------------------------------|||------------------------------------------|||------------------------------------------|||------------------------------------------|||-0----X-----0----X-----------0----X-----0-||
||---------------------------------------------------------|||---------------------------------------------------------|||---------------------------------------------------------|||---------------------------------------------------------|||---------------------------------------------------------|||-1----1-----1----1-----------1----1-----1----1-----------|
|----------------------------------------------||----------------------------------------------||----------------------------------------------||-------------1--------------------------------||----------------------------------------------||-1----1b----------1----1-----1----1-----------|
|-----------------------------------|||-----------------------------------|||-----------------------------------|||-----------------------------------|||-----------------------------------|||-1----1----1-----------0-----------||
||----------------------------------------------||||----------------------------------------------||||----------------------------------------------||||----------------------------------------------||||---------------------------------5b-----------||||-0-0-----0-0-----0-0-----0-0------------0-----|| * * * * * * *
Note: Rhythms change.||---------------------------------------|||---------------------------------------|||---------------------------------------|||---------------------------------------|||--------------4-------------4----------|||-0-0--0-0-----------0-0------------0-0-| * * * * * * *
|---------------------------------------|||---------------------------------------|||---------------------------------------|||---------------------------------------|||--------------4-------------4----------|||-0-0--0-0-----------0-0------------0-0-|| * * * * * * *
(x2)||----------------------------------||||----------------------------------||||----------------------------------||||----------------------------------||||---------4-------------4----------||||-0-0-----------0-0------------0-0-|| * * * * *
||---------------------------------------|||---------------------------------------|||---------------------------------------|||---------------------------------------|||--------------4-------------4----------|||-0-0--0-0-----------0-0------------0-0-| * * * * * * *
|-------------------|||-------------------|||-------------------|||-------------------|||---------4--4b-----|||-0-0---------------|| * *
Tap to rate this tab
 
# A B C D E F G H I J K L M N O P Q R S T U V W X Y Z