Fernando Sor - Estudio 17 tab

fernando sor
estudio 17
tabbed by blkwolf2chains@aol.com
took awhile but its all done
enjoi...

eadgbe

 
|----------------0-------0-------|0------------------------------|--------0-----------------------|--------0-------0-------0------|----0-------0-------0-------0---|----0-------0-------0-------0--|--2-------2-------2-------2-----|--2-------2-------2-------2----|--------------------------------|-------------------------------|0-------------------------------|0------------------------------
|----------------0-------3-------|3---------------2--------------|--------0-----------------------|--------1---------------1------|----0-------0-------0-------0---|----2-------2-------2-------2--|--2-------2-------2-------2-----|--2-------2-------2-------2----|--------------------------------|-------------------------------|0-------------------------------|0------------------------------
|--------2-------2-------2-------|2------------------------------|--------------------------------|--------0-------0--------------|----2-------2-------2-------2---|----2-------2-------2-------2--|--2-------2-------2-------2-----|--1-------1-------1-------1----|--------------------------------|------------------------3------
|--------2-------3-------2-------|2---------------0--------------|--------------------------------|--------0---------------0------|----2-------2-------2-------2---|----2-------2-------0-------0--|--1-------1-------1-------1-----|--2-------2-------2-------2----|2-------------------------------|-------------------------------|--------------------------------|0------------------------------
|--------3-------3-------3-------|3-------2-------2--------------|----0-------0-------0-------2---|----3-------3-------3-------3--|--------------------------------|--2-------2-------2-------2----|--2-------2-------2-------2-----|0-----------------------0------|--------------------------------|-------------------------------|0-------------------------------|-------------------------------
|--------5-------5-------5-------|5-------3-------3--------------|----3-------3-------3-------3---|--0-3-----0-3-----0-3-----0-3--|--5-------5-------5-------5-----|0-----------------------0------|4-------------------------------|-------------------------------|--------------------------------|-------------------------------|--------------------------------|-------------------------------
|--------7-------7-------7-------|7-------5-------5---0-------0--|----3-------3-------3-------3---|----5-------5-----1-------1----|--4-------4-------4-------4-----|--5-------5--------------------|--------------------------------|-------------------------------|--------------------------------|------------------------3------|3-------------------------------|8------------------------------
|----0---3---0---3---0---3---0---|3-------2-------2--------------|--------------------------------|----3-------3-------3-------3--|--3-------3-------3-------3-----|--2-------2-------2-------2----|--------------------------------|0-----------------------0------|4-------------------------------|-------------------------------|--------------------------------|-------------------------------
|--------2-------2-------2-------|2-------3-------3--------------|----3-------3-------3-------3---|----3-------3-------3-------3--|--2-------2-------2-------2-----|--0-------0-------0-------0----|--------------------------------|-------------------------------|3-------------------------------|2-----------------------2------|--------------------------------|-------------------------------
|--------5-------5-------5-------|6-------7-------7--------------|--------------------------------|----0-------0-------0----------|----5-------5-------5-------5---|----------------------------0--|--------------------------------|--0-------0-------0-------0----|--5-------5-------5-------5-----|-------------------------------|2-------------------------------|3-----------------------3------
|--------3-------3-------3-------|--------5---------------8---0--|----0-------0-------0-------0---|----5-------5-------5-----1----|--0-------0-------0-------0-----|--5-------5-------5------------|------------------------2-------|-------------------------------|--------------------------------|-------------------------------|0-------------------------------|8---------------5--------------
|--------2-------2-------2-------|2-------3-------3--------------|----1-------1-------1-------1---|----1-------0-------0-------0--|--2-------2-------2-------2-----|--2-------0-------0-------0----|0-----------------------1-------|2-----------------------2------|--------------------------------|-------------------------------|--------------------------------|-------------------------------
|--------1-------1-------1-------|1-------0-----------0---5---0--|----3-------3-------3-------3---|----3-------1-----1-------1----|--1-------1-------1-------1-----|--2-------2--------------------|--------------------------------|-------------------------------|2-------------------------------|3---------------0--------------|--------------------------------|-------------------------------
|5-------3-------3-------2-------|3------------------------------|--0-3-----0-3-------1-------1---|----0---3---0---0---0---3---0--|------------------2-------2-----|--0-------0-------0-------0----|0-------------------------------|--------0---------------0------|--------------------------------|----------------2--------------|--------------------------------|3------------------------------
|----------------7-------5-------|5---------------4--------------|--------3-----------------------|----0---3---0-------0---3---0--|--------------------------------|-------------------------------|--------------------------------|--2-------2-------2-------2----|--------------------------------|-------------------------------|3-------------------------------|0------------------------------
|--------0-------2-------4-------|7-------0-------5-------0------|--0-3-----0-3-----0-3-----0-3---|----3-------3-------1-------1--|--------------------------------|--1-------1-------2-------2----|--------------------------------|-------------------------------|--------------------------------|0------------------------------|0-------------------------------|-------------------------------
|--------0-------5-------3-------|3-------2-------2--------------|----1-------1-------1-------1---|----1-------1-------1-------1--|--2-------2-------2-------2-----|--2-------2-------2-------2----|------------------------1-------|0-----------------------0------|0-------------------------------|-------------------------------|--------------------------------|-------------------------------
|--------2-------0-------2-------|5---------------3--------------|----1-------1-------1-------1---|----1---3---1-------0---3---0--|--2-------2-------2-------2-----|------------------0-------0----|0-------------------------------|--4-------4--------------------|--------------------------------|-------------------------------|--------------------------------|3------------------------------
|--------3-------3-------3-------|3---------------2--------------|--0-3-----0-3-----0-3-----0-3---|--------0---------------0------|--------------------------------|----2-------2-------2-------2--|--------------------------------|--1-------1-------1-------1----|--------------------------------|2------------------------------|3-------------------------------|-------------------------------
|
|--------2-------2-------2-------|2---------------0--------------|--------------------------------|--------0---------------0------|----2-------2-------2-------2---|----0-------0-------0-------0--|--1-------1-------1-------1-----|--2-------2-------2-------2----|2-------------------------------|-------------------------------|--------------------------------|0------------------------------
|--------3-------3-------3-------|3---------------2--------------|--------------------------------|--------0---------------0------|----0-------0-------0-------0---|----2-------2-------2-------2--|--2-------2-------2-------2-----|--1-------1-------1-------1----|--------------------------------|2------------------------------|0-------------------------------|-------------------------------
|--------2-------2-------2-------|2---------------0--------------|--------------------------------|--------0---------------0------|----2-------2-------2-------2---|----0-------0-------0-------0--|--1-------1-------1-------1-----|--2-------2-------2-------2----|0-------------------------------|-------------------------------|--------------------------------|0------------------------------
|--------0-------0-------0-------|3---------------2--------------|----0-------0-------0-------0---|--------1---------------1------|--0-------0-------0-------0-----|----2-------2-------2-------2--|--------------------------------|--2-------2-------2-------2----|--------------------------------|-------------------------------|0-------------------------------|0------------------------------
|--------2-------2-------2-------|5---------------4--------------|--------------------------------|----0---3---0-------0---3---0--|----2-------2-------2-------2---|-------------------------------|--2-------2-------2-------2-----|--2-------2-------2-------2----|--------------------------------|-------------------------------|0-------------------------------|0------------------------------
|--------4-------4-------4-------|7-------5-------5-------3------|--0-3-----0-3-----0-3-----0-3---|----5-------5-----0-3-----0-3--|--------------------------------|--5-------5--------------------|--------------------------------|-------------------------------|--------------------------------|-------------------------------|0-------------------------------|5------------------------------
|3-------2-------2-------0-------|0------------------------------|----1-------1-------2-------2---|----0---4---0---4---0-------0--|--2-------2-------0-------0-----|-------------------------------|--------------------------------|--4-------4-------4-------4----|0---------------1---------------|2-----------------------2------|--------------------------------|-------------------------------
|--------0-------0-------0-------|0------------------------------|--------------------------------|----0---4---0---4---0-------0--|--0-3-----0-3-----0-3-----0-3---|-------------------------------|--------------------------------|--4-------4-------4-------4----|2-------------------------------|2-----------------------2------|--------------------------------|-------------------------------
|--------0-------0-------0-------|0------------------------------|--------------------------------|----0---4---0---4---0-------0--|--0-3-----0-3-----0-3-----0-3---|-------------------------------|--------------------------------|--4-------4-------4-------4----|2-------------------------------|2-----------------------2------|--------------------------------|-------------------------------
|--------------------------------|--------4-------4--------------|--------0-------0-------0-------|0------------------------------|--------------------------------|----1-------1-------1-------1--|--------------------------------|--2-------2-------2-------2----|2-------------------------------|-------------------------------|--------------------------------|0-----------------------0------
|--------2-------2-------2-------|2-------0-------0--------------|----4-------4-------4-------4---|----4-------2-------2-------2--|--2-------2-------2-------2-----|--2-------1-------1-------1----|--------------------------------|-------------------------------|2-------------------------------|4-----------------------4------|--------------------------------|-------------------------------
|--------0-----------------------|-------------------------------|----2-------2---4---0---2-------|2-------0-------0-----------0--|--1-------1-----------------2---|----2-------1-------1-----1----|------------------2-------2-----|--2-------2-------2-----2------|0-------------------------------|2------------------------------|--------------------------------|-------------------------------
|--------------------------------|--------0-------0--------------|--------4-------4-------4-------|4-----------------------0------|----2-------2-------2-------2---|----2-------1-------1-------1--|--4-------4-------4-------4-----|--4-------2-------2-------2----|2-------------------------------|-------------------------------|--------------------------------|0------------------------------
|--------------------------------|--------4-------4--------------|--------0-------0-------0-------|0------------------------------|----1-------1-------1-------1---|----1-------1-------1-------1--|--2-------2-------2-------2-----|--2-------2-------2-------2----|--------------------------------|-------------------------------|0-------------------------------|0-----------------------0------
|--------2-------2-------2-------|2-------0-------0--------------|----4-------4-------4-------4---|----4-------2-------2-------2--|--2-------2-------2-------2-----|--2-------1-------1-------1----|--------------------------------|-------------------------------|2---------------3---------------|4-----------------------4------|--------------------------------|-------------------------------
|--------0-----------------------|-------------------------------|----2-------2---4---0---2-------|2-------0-------0--------------|--2-------------------------2---|----2-------1-------1-------1--|----------2-------2-------2-----|--2-------2-------2-------2----|0-------------------------------|2-----------------------2------|--------------------------------|-------------------------------
|--------------------------------|0-------4-------2-------0------|--------4-------4-------4-------|-------------------------------|----2-------2-------2-------2---|----1-------1-------1-------1--|--4-------4-------4-------4-----|--2-------2-------2-------2----|2-------------------------------|-------------------------------|--------------------------------|0------------------------------
|2-------0-----------------------|-------------------------------|----4-------2---4---0---2-------|2-------0-------0--------------|----------------------------2---|----1-------1-------1-------1--|--2-------2-------2-------2-----|--2-------2-------2-------2----|0-------------------------------|2-----------------------2------|--------------------------------|-------------------------------
|--------------------------------|0------------------------------|--------4-------4-------4-------|----0-------0-------0-------0--|----2-------2-------2-------2---|--1-------1-------1-------1----|--4-------4-------4-------4-----|--------2-------2-------2------|2-------------------------------|-------------------------------|--------------------------------|0------------------------------
|----------------0---------------|----------------2-------0------|--------0---------------4-------|--------0----------------------|----2-------2-------2-------2---|----1-------1-------1-------1--|--4-------4-------4-------4-----|--2-------2-------2-------2----|--------------------------------|-------------------------------|0-------------------------------|0------------------------------
|----------------4-------2-------|----------------2-------0------|--------0-----------------------|--------0----------------------|----2-------2-------2-------2---|----1-------1-------1-------1--|--1-------1-------1-------1-----|--2-------2-------2-------2----|--------------------------------|-------------------------------|0-------------------------------|0------------------------------
|----------------0---------------|----------------2-------0------|--------0---------------4-------|--------0----------------------|----2-------2-------2-------2---|----1-------1-------1-------1--|--4-------4-------4-------4-----|--2-------2-------2-------2----|--------------------------------|-------------------------------|0-------------------------------|0------------------------------
|----------------4-------2-------|----------------0--------------|--------0-----------------------|--------0----------------------|----2-------2-------2-------2---|----1-------1-------1-------1--|--1-------1-------1-------1-----|--2-------2-------2-------2----|--------------------------------|------------------------2------|0-------------------------------|0------------------------------
|----------------0---------------|----------------0-------------0-|--------0-----------------------|--------0---------------0-------|----1-------1-------1-------1---|----1-------1-------1-------1---|--2-------2-------2-------2-----|--2-------2-------2-------2-----|------------------------2-------|--------------------------------|0-------------------------------|0---------------0-------------0-
Tap to rate this tab
 
# A B C D E F G H I J K L M N O P Q R S T U V W X Y Z