Fightstar - Grand Unification tab

Fightstar
Grand Unification (2007)

This album was issued in early 2007 just before the release of '99',
It’s kind of a compilation of the first album and the EP...

Tracks:
1.To Sleep
2.Grand Unification
3.Speak Up
4.Here Again (Last Conversation)
5.Waste A Moment
6.Grand Unification Pt2
7.Hazy Eyes
8.Build An Army
9.Open Your Eyes
10.Lost Tears In The Rain
11.Sleep Well Tonight
12.Palahniuk’s Laughter
13.Mono
14.Amethyst
15.Paint Your Target
16.Wake Up

there might be a few mistakes...its a big mutha fookin' tab;)

----------------------------------------------------------------------------
To Sleep
Tuning:(E A D G B E)

Gtr 1|-------------------------------------------------------------------||-------------------------------------------------------------------||-------------------------------------------------------------------||-8-8-8-8-8-8-8-10/7-7-7-7-7-7-7-8/5-5-5-5-5-5-5-7/3-3-3-3-3-3-3-3\-||-------------------------------------------------------------------||-------------------------------------------------------------------|x5
Gtr 2|-----------1----------------0-------------------------------0------||-------3----------------3---------------3---1-----------3----------||-3~--3------------2~--2-----------0~--0----------------------------||--------------------------------------------------3~--3------------||-------------------------------------------------------------------||-------------------------------------------------------------------|
|----------------------------0-------------------------------0------||-------3---1------------3---------------3---1-----------3----------||-3~--3------------2~--2-----------0~--0----------------------------||--------------------------------------------------3~--3------------||-------------------------------------------------------------------||-------------------------------------------------------------------|x2
|-----------------------0-------0-----------------------------------||-----3-1-----3-1-----3-------3-------3-1-----3-1-----3-1-----3-----||-3~--------------2~--------------0~----------------------------0---||-------------------------------------------------3~----------------||-------------------------------------------------------------------||-------------------------------------------------------------------|
|-------1-------1-------0-------0-----------------------------------||-----3-------3-------3-------3-------3-1-----3-1-----1-3-----1~----||-3~--------------2~--------------0~--------------------------------||-------------------------------------------------3~----------------||-------------------------------------------------------------------||-------------------------------------------------------------------|
Gtr 3 (tremolo picking)|-------------------------------------------------------------------||-11~---------/13--\10~---------/11--\8~----------/10--\6~-------//-||-------------------------------------------------------------------||-------------------------------------------------------------------||-------------------------------------------------------------------||-------------------------------------------------------------------|x4
---------------------------------------------------------------------------- Grand Unification Pt1 Tuning:(C G C F A D) Intro
Gtr 1|----------------------------------------------||----------------------------------------------||----------------------------------------------||-3/7-00--00--00--00--00-8\33--33--33--33--333-||-3/7-00--00--00--00--00-8\33--33--33--33--333-||-3/7-00--00--00--00--00-8\33--33--33--33--333-|
Gtr 2|-------------------------------------------------------||-------------------------------------------------------||5/9-1010--1010--1010--1010--1010-14\55--55--55--55--555||x/x--x-x---x-x---x-x---x-x---x-x--x\xx--xx--xx--xx--xxx||3/7--8-8---8-8---8-8---8-8---8-8-12\33--33--33--33--333||-------------------------------------------------------|
Gtr 1|----------------------------------------------------||----------------------------------------------------||-9999999999999999-1010101010101010-1010101010101010-||-7777777777777777--8-8-8-8-8-8-8-8-1010101010101010-||-7777777777777777--8-8-8-8-8-8-8-8--8-8-8-8-8-8-8-8-||-7777777777777777--8-8-8-8-8-8-8-8--8-8-8-8-8-8-8-8-|
Gtr 2D|--------------------------------------------|A|--------------------------------------------|F|-9999999999999/101010\777777777/9999/101010-|C|-xxxxxxxxxxxxx/-x-x-x\xxxxxxxxx/xxxx/-x-x-x-|G|-7777777777777/-8-8-8\555555555/7777/-8-8-8-|C|--------------------------------------------|
Verse
Gtr 1|----------------------------|--------------------------------------||----------------------------|--------------------------------------||----------------------------|--------------------------------------||--------7---------7-------7-|-----------10------------10--------10-||-5-5--5-5--5-5--5-5---5-5-5-|-10-10--10-10--10-10--10-10--10-10-10-||-0-0--0----0-0--0-----0-0---|-10-10--10-----10-10--10-----10-10----| . . . . . . . . . . . . . . . .
|---------------------------|----------------------------------||---------------------------|----------------------------------||---------------------------|----------------------------------||----10-10----8--8---10--8--|----7--7---------8-----10---10/12-||---------------------------|----------------------------------||-8-8--8--8-8--8--8-8--8--8-|-5-5--5--5-5-8-8----8-8---8-------| . . . . . . . . . . . . . . . . . .
Gtr 2|-----------------------------------||-----------------------------------||-7777777777777777/9999999999999999-||-xxxxxxxxxxxxxxxx/xxxxxxxxxxxxxxxx-||-5555555555555555/7777777777777777-||-----------------------------------|
|-------------------------------------------------------------------||-------------------------------------------------------------------||-101010101010101010101010101010101010101010101010/1212121212121212-||--x-x-x-x-x-x-x-x-x-x-x-x-x-x-x-x-x-x-x-x-x-x-x-x/-x-x-x-x-x-x-x-x-||--8-8-8-8-8-8-8-8-8-8-8-8-8-8-8-8-8-8-8-8-8-8-8-8/1010101010101010-||-------------------------------------------------------------------|
Pre-ChorusGtr 1|--------------------------------------||--------------------------------------||--------------------------------------||-0h3/7\000000000000/8\333333333333333-||-0h3/7\000000000000/8\333333333333333-||-0h3/7\000000000000/8\333333333333333-|
Gtr 2|-----------------------------------------------------||-----------------------------------------------------||-10101010101010101010101010101010/14\555555555555555-||--x-x-x-x-x-x-x-x-x-x-x-x-x-x-x-x/-x\xxxxxxxxxxxxxxx-||--8-8-8-8-8-8-8-8-8-8-8-8-8-8-8-8/12\333333333333333-||-----------------------------------------------------|
Pre-ChorusGtr 1|--------------------------------------------------------||--------------------------------------------------------||--------------------------------------------------------||---------10-----10---------10-----10---------7-------5--||-8-8-8-8--8-8-8--8-8-8-8-8--8-8-8--8-5-5-5-5-5-5-5-5-3--||-8-8-8-8----8-8----8-8-8-8----8-8----0-0-0-0---0-0-0----| . . . . . . . . . . . . . . . . . . .
Gtr 2 |-----8-------8-------8-------8-------8-------8---8-||---6---6---6---6---6---6---6---6---6---6---6---6-6-||-7-------7-------7-------7-------7-------7-------7-||---------------------------------------------------||---------------------------------------------------||---------------------------------------------------|
ChorusGtr 1|--------|--------|---------------||--------|--------|---------------||-10-----|-10-----|--10-----12----||-10-x32-|-10-x32-|---8-24x-10-8x-||--8-----|--8-----|---8-----10----||--8-----|--8-----|---8-----10----|
Gtr 2|-8-----|-----------------------|-----8------||-6-x32-|-----------------------|---6---6-x8-||-7-----|-10----9----10----9----|-7----------||-------|--x-8x-x-8x--x-x8-x-8x-|------------||-------|--8----7-----8----7----|------------||-------|-----------------------|------------|
Repeat verse, pre-chorus and chorus
Pre-BridgeGtr 1 & 2|---------------------------------------------------||---------------------------------------------------||-99--99--99--99--9-9-1010--1010--1010--1010--10-10-||-77--77--77--77--7-7--8-8---8-8---8-8---8-8---8--8-||-77--77--77--77--7-7--8-8---8-8---8-8---8-8---8--8-||-77--77--77--77--7-7--8-8---8-8---8-8---8-8---8--8-|
BridgeGtr 1|------------------------------------------------------------||------------------------------------------------------------||------------------------------------------------------------||-0-1-0-1-0-0-0-1-0-0-0-1-0-6-6-6-0-1-0-1-0-0-0-1-0-0-0-1-6\-||-0-1-0-1-0-0-0-1-0-0-0-1-0-6-6-6-0-1-0-1-0-0-0-1-0-0-0-1-6\-||------------------------------------------------------------| . . . . . . . . . . . . . . . . . . . . . . . . . . . .
BridgeGtr 1 & 2|---------------------------------||---------------------------------||---------------------------------||-0-1-0-1-0-----1-0-----1-0-6-6-6-||-0-1-0-1-0-----1-0-----1-0-6-6-6-||-0-1-0-1-0-----1-0-----1-0-6-6-6-|
BridgeGtr 1 & 2|----------------------------------------------------------------||----------------------------------------------------------------||----------------------------------------------------------------||-0-1-0-1-0-0-0-1-1-0-0-0-1-0-6-6-6-0-1-0-1-0-0-0-1-0-0-0-1-1-6\-||-0-1-0-1-0-0-0-1-1-0-0-0-1-0-6-6-6-0-1-0-1-0-0-0-1-0-0-0-1-1-6\-||-0-1-0-1-0-0-0-1-1-0-0-0-1-0-6-6-6-0-1-0-1-0-0-0-1-0-0-0-1-1-6\-| . . . . . . . . . . . . . . . . . . . . . . . . . . . . . .
BridgeGtr 1 & 2|---------------------------------||---------------------------------||---------------------------------||-0-1-0-1-0-----1-0-----1-0-6-6-6-||-0-1-0-1-0-----1-0-----1-0-6-6-6-||-0-1-0-1-0-----1-0-----1-0-6-6-6-|
BridgeGtr 1|---------------------------------||---------------------------------||---------------------------------||-0-1-0-1-0-----1-0-----1-0-6-6-6-||-0-1-0-1-0-----1-0-----1-0-6-6-6-||-0-1-0-1-0-----1-0-----1-0-6-6-6-| . . . .
Gtr 2|---------------------------------||---------------------------9-9-9-||---------7-----8-7-----8-7-x-x-x-||-0-0-0-0-x-----x-x-----x-x-6-6-6-||-0-0-0-0-5-----6-5-----6-5-------||-0-0-0-0-------------------------| . . . .
Second BridgeGtr 1|---------------------------------------------------------------||---------------------------------------------------------------||-------------------------------------------------101010999-----||-121212121212121212121212121212121010101010101010---------1010-||---------------------------------------------------------------||---------------------------------------------------------------|
Gtr 2|--8-8-8-8-8-8-8-8-8-8-8-8-8-88866655-||-6-6-6-6-6-6-6-6-5-5-5-5-5--55555555-||-------------------------------------||-------------------------------------||-------------------------------------||-------------------------------------|
Second BridgeGtr 1|------------------------------------------------------------||------------------------------------------------------------||------------------------------------------------------------||-10101010101010101010101010101010-00000000-1010101010101010-||--8-8-8-8-8-8-8-8-8-8-8-8-8-8-8-8-00000000-1010101010101010-||--8-8-8-8-8-8-8-8-8-8-8-8-8-8-8-8-00000000-1010101010101010-|
. . . . . . . . . . . . . . . ......... . . . . . . . .Gtr 2|--8-8-8-8-8-8-8-8-8-8-8-8-8-88866655-||-6-6-6-6-6-6-6-6-5-5-5-5-5--55555555-||-------------------------------------||-------------------------------------||-------------------------------------||-------------------------------------|
Second BridgeGtr 1|----------------------------------||----------------------------------||----------------------------------||-10101010101010101010101010101010-||--8-8-8-8-8-8-8-8-8-8-8-8-8-8-8-8-||--8-8-8-8-8-8-8-8-8-8-8-8-8-8-8-8-|
. . . . . . . . . . . . . . . .Gtr 2|-8888888888888888-||-6666666666666666-||------------------||------------------||------------------||------------------|
EndingGtr 1|--------------------------------------------------------||--------------------------------------------------------||-1010101010101010-99999999-1010101010101010-99999999----||--x-x-x-x-x-x-x-x-xxxxxxxx--x-x-x-x-x-x-x-x-xxxxxxxx-x2-||--8-8-8-8-8-8-8-8-77777777--8-8-8-8-8-8-8-8-77777777----||--------------------------------------------------------|
Gtr 2|----------------------||----------------------||-1010101010101010-----||-1010101010101010-x8--||--8-8-8-8-8-8-8-8-----||--8-8-8-8-8-8-8-8-----|
EndingGtr 1|-------------------------------------------------------||-------------------------------------------------------||-1010101010101010-99999999-1010101010101010-99999999---||--x-x-x-x-x-x-x-x-xxxxxxxx--x-x-x-x-x-x-x-x-xxxxxxxx-x2||--8-8-8-8-8-8-8-8-77777777--8-8-8-8-8-8-8-8-77777777---||-------------------------------------------------------|
|---------------------------------------------------------------------||---------------------------------------------------------------------||-1212121212121212-1414141414141414-1515151515151515-1717171717171717-||--x-x-x-x-x-x-x-x--x-x-x-x-x-x-x-x--x-x-x-x-x-x-x-x--x-x-x-x-x-x-x-x-||-1010101010101010-1212121212121212-1313131313131313-1515151515151515-||---------------------------------------------------------------------|
Gtr 2|----------------------||----------------------||-1010101010101010-----||-1010101010101010-x12-||--8-8-8-8-8-8-8-8-----||--8-8-8-8-8-8-8-8-----|
End OnGtr 1|----||-6~-||-x~-||-3~-||-0~-||-0~-|
Gtr 2|-----||-----||-10~-||-10~-||--8~-||--8~-|
---------------------------------------------------------------------------- Speak Up Tuning:(D A D G B E)
Intro|----------------------------|----------------------------|----||----------------------------|----------------------------|----||----------------------------|----------------------------|----||----------------------------|----------------------------|----||------------------11--------|------------------11--------|-xx-||-0-0-12p00-11/10-0--00-3p2b-|-0-0-12p00-11/10-0--00-3p2b-|-xx-|
Intro|---------------|---------------|-------------------------------------||---------------|---------------|-------------------------------------||---------------|---------------|-------------------77777777-99999999-||---------------|---------------|-77777777-99999999-77777777-99999999-||-0-0-000-x11^--|-0-0-000-x11^--|-77777777-99999999-55555555-77777777-||-0-0-000-x11^--|-0-0-000-x11^--|-77777777-99999999-------------------|
Verse|----------------|----------------|----------------|----------------||----------------|----------------|----------------|----------------||----------------|----------------|----------------|----------------||----------------|----------------|----------------|----------------||----------------|----------------|----------------|----------------||-0-0-000--x11^--|-0-0-000--x11^--|-0-0-000--x11^--|-0-0-000--x11^--||-0-0-000--x11^--|-0-0-000--x11^--|-0-0-000--x11^--|-0-0-000--x11^--|
Verse|-------------------------------------||-------------------------------------||-------------------77777777-99999999-||-77777777-99999999-77777777-99999999-||-77777777-99999999-55555555-77777777-||-77777777-99999999-------------------|
Pre-Chorus|---------------------------|---------------------------||---------------------------|---------------------------||---------------------------|---------------------------||-2-2-2-2-x9999999-x5555555-|-2-2-2-2-x9999999-x5555555-||-2-2-2-2-x9999999-x5555555-|-2-2-2-2-x9999999-x5555555-||-2-2-2-2-x9999999-x5555555-|-2-2-2-2-x9999999-x5555555-|
Pre-chorus|-77-99-1010-99-77-99-1010-99-||-77-77--7-7-77-77-77--7-7-77-||-----------------------------||-----------------------------||-----------------------------||-----------------------------|
ChorusGtr1|--------------------------------------------|-------------||--------------------------------------------|-7~-/12~-10~-||--------------------------------------------|-------------||-99999999-1212121212121212-5555555555555555-|-------------||-99999999-1212121212121212-5555555555555555-|-------------||-99999999-1212121212121212-5555555555555555-|-------------|
Gtr2|-77-99-1010-99-77-99-1010-99-77-99-1010-99-1212-1010-99-77-||-77-77--7-7-77-77-77--7-7-77-77-77--7-7-77--7-7--7-7-77-77-||-----------------------------------------------------------||-----------------------------------------------------------||-----------------------------------------------------------||-----------------------------------------------------------|
|Gtr1|--------------------------------------------|-----------------------------||--------------------------------------------|--15-15-15-15-14-14-14-14x---||--------------------------------------------|--14-14-14-14-14-14-14-14x-7-||-99999999-1212121212121212-5555555555555555-|--12-12-12-12-12-12-12-12x-x-||-99999999-1212121212121212-5555555555555555-|---------------------------5-||-99999999-1212121212121212-5555555555555555-|---------------------------0-|
Gtr2|-77-99-1010-99-77-99-1010-99-77-99-1010-99-77-99-1010-99-||-77-77--7-7-77-77-77--7-7-77-77-77--7-7-77-77-77--7-7-77-||---------------------------------------------------------||---------------------------------------------------------||---------------------------------------------------------||---------------------------------------------------------|
|----------------------||----------------------||----------------------||-121212/1111-x2~~--xx-||-121212/1111-x2~~--xx-||-121212/1111-x2~~--xx-| THEN BACK TO VERSE, PRE-CHORUS AND CHORUS...
InterludeGtr1|----------------------------|----------------------------||----------------------------|----------------------------||----------------------------|----------------------------||----------------------------|----------------------------||------------------11--------|------------------11--------||-0-0-12p00-11/10-0--00-3p2b-|-0-0-12p00-11/10-0--00-3p2b-|
Gtr2|----------------------------|----------------------------||----------------------------|----------------------------||----------------------------|----------------------------||----------------------------|----------------------------||-0-0------------------------|-0-0------------------------||-0-0------------------------|-0-0------------------------|
. . . .Outro|-------------------------------|-------------------------------||-------------------------------|-------------------------------||-------------------------------|-------------------------------||-------------------------------|-------------------------------||-0-0-12-00-11p10-0-11-00-3p2h3-|-0-0-12-00-11p10-0-11-00-3p2h3-||-0-0-12-00-11p10-0----00-3p2h3-|-0-0-12-00-11p10-0-11-00-3p2h3-|
End on|---||---||---||-0-||-0-||-0-|
---------------------------------------------------------------------------- Here Again (Last Conversation) Tuning:(Db Ab Db Gb Bb Eb)
IntroGtr 1|----------------------------------------------------------||-------0-------------0-------------14------------14-------||----------------------------------------------------------||---4-----4---4---4-----4---4---12----12--12--12----12--12-||-2---2-----2---2---2-----2---14--14----14--14--14----14---||----------------------------------------------------------|
|-----------------------------------------------------------||-------0-------------0--------------0--------------0-------||-----------------------------------------------------------||---9-----9---9---9-----9---9---12-----12--12---7-----7---7-||-7---7-----7---7---7-----7---10--10-----10---5---5-----5---||-----------------------------------------------------------|
Gtr 2|-------5-----5-----5-------------3-----3-----3-------||---3-----3-----3-----3---3---3-----3-----3-----3---3-||-4---4-----4-----4-----4---4---4-----4-----4-----4---||-----------------------------------------------------||-----------------------------------------------------||-----------------------------------------------------|
|-------2-----2-----2-------------3-----3-----3-------||---3-----3-----3-----3---3---3-----3-----3-----3---3-||-4---4-----4-----4-----4---4---4-----4-----4-----4---||-----------------------------------------------------||-----------------------------------------------------||-----------------------------------------------------|
VerseGtr 1|----------------------------------------------------------||-------0-------------0-------------14------------14-------||----------------------------------------------------------||---4-----4---4---4-----4---4---12----12--12--12----12--12-||-2---2-----2---2---2-----2---14--14----14--14--14----14---||----------------------------------------------------------|
|-----------------------------------------------------------||-------0-------------0--------------0--------------0-------||-----------------------------------------------------------||---9-----9---9---9-----9---9---12-----12--12---7-----7---7-||-7---7-----7---7---7-----7---10--10-----10---5---5-----5---||-----------------------------------------------------------|
Gtr 2|-------5-----5-----5-------------3-----3-----3-------||---3-----3-----3-----3---3---3-----3-----3-----3---3-||-4---4-----4-----4-----4---4---4-----4-----4-----4---||-----------------------------------------------------||-----------------------------------------------------||-----------------------------------------------------|
|-------2-----2-----2-------------3-----3-----3-------||---3-----3-----3-----3---3---3-----3-----3-----3---3-||-4---4-----4-----4-----4---4---4-----4-----4-----4---||-----------------------------------------------------||-----------------------------------------------------||-----------------------------------------------------|
Chorus (both guitars)|---------------------------------------------||---------------------------------------------||-111111-111111-111111-111111-777-777-777-777-||--9-9-9--9-9-9--9-9-9--9-9-9-555-555-555-555-||--9-9-9--9-9-9--9-9-9--9-9-9-555-555-555-555-||--9-9-9--9-9-9--9-9-9--9-9-9-555-555-555-555-|
|---------------------------------||---------------------------------||---------------------------------||-999-999-999-999-4b~-4b~-4b~-4b~-||-777-777-777-777-2b~-2b~-2b~-2b~-||-777-777-777-777-2b~-2b~-2b~-2b~-||-777-777-777-777-2b~-2b~-2b~-2b~-|
Verse 2 same as first, except at end, do this...|----------------------------------------------------------||-------0-------------0------------------------------------||----------------------------------------------------------||---9-----9---9---9-----9---9--0h2-xx-5p2-xx-5h7-xx-2p0-xx-||-7---7-----7---7---7-----7----0h2-xx-5p2-xx-5h7-xx-2p0-xx-||------------------------------0h2-xx-5p2-xx-5h7-xx-2p0-xx-|
|-------5-----5-----5-------------------------------||---3-----3-----3-----3---3-------------------------||-4---4-----4-----4-----4---------------------------||---------------------------22-xx-22-xx-55-xx-00-xx-||---------------------------22-xx-22-xx-55-xx-00-xx-||---------------------------22-xx-22-xx-55-xx-00-xx-|
2nd Chorus (both guitars)|---------------------------------------------||---------------------------------------------||-1111111111111111-77777777-99999999-44444444-||--9-9-9-9-9-9-9-9-55555555-77777777-22222222-||--9-9-9-9-9-9-9-9-55555555-77777777-22222222-||--9-9-9-9-9-9-9-9-55555555-77777777-22222222-|
|---------------------------------------------||---------------------------------------------||-111111-111111-111111-111111-777-777-777-777-||--9-9-9--9-9-9--9-9-9--9-9-9-555-555-555-555-||--9-9-9--9-9-9--9-9-9--9-9-9-555-555-555-555-||--9-9-9--9-9-9--9-9-9--9-9-9-555-555-555-555-|
|---------------------------------||---------------------------------||---------------------------------||-999-999-999-999-4b~-4b~-4b~-4b~-||-777-777-777-777-2b~-2b~-2b~-2b~-||-777-777-777-777-2b~-2b~-2b~-2b~-||-777-777-777-777-2b~-2b~-2b~-2b~-|
BreakGtr 1|--------------------------------||--------------------------------||--------------------------------||--------------------------------||-99--99--99--99--99--99--99--99-||-99--99--99--99--99--99--99--99-|
.. .. .. .. .. .. .. ..Gtr 2|----------------------------------------------||----------------------------------------------||-1111--1111--1111--1111--1111--1111--1414--77-||--9-9---9-9---9-9---9-9---9-9---9-9--1212--55-||--9-9---9-9---9-9---9-9---9-9---9-9--1212--55-||--9-9---9-9---9-9---9-9---9-9---9-9--1212--55-|
BridgeGtr 1|---------------------------------------------------------------------||---------------------------------------------------------------------||--------------------------------------------111111111111111199999999-||-22---------22---------55---------55---------9-9-9-9-9-9-9-977777777-||-22---------22---------55---------55---------9-9-9-9-9-9-9-977777777-||-22---------22---------55---------55---------9-9-9-9-9-9-9-977777777-|
.. .. .. ..Gtr 2|--------------------------------------------------------------||--------------------------------------------------------------||--------------------------------------------------------------||---4-4p2------4-4p2------7-7p5------7-7p5----9999999977777777-||-22-----4p2-22-----4p2-55-----7p5-55-----7p5-9999999977777777-||-22---------22---------55---------55---------9999999977777777-| .. .. .. ..
Pre-Outro|----------------------------------||----------------------------------||----------------------------------||-----------------5-5-5-5-5-5-5-5--||-5-5-5-5-5-5-5-5-5-5-5-5-5-5-5-5--||-5-5-5-5-5-5-5-5-5-5-5-5-5-5-5-5--| . . . . . . . . . . . .
OutroGtr 1|-------------------------------------||-------------------------------------||-22222222-77777777-99999999-44444444-||-00000000-55555555-77777777-22222222-||-00000000-55555555-77777777-22222222-||-00000000-55555555-77777777-22222222-|
Gtr2 (vary this a little)|------9----10------9------10----9----10-||---10---10------10-----10----10---10----||-7--------------------------------------||----------------------------------------||----------------------------------------||----------------------------------------|
Then both guitars|---------------------------------------------||---------------------------------------------||-111111-111111-111111-111111-777-777-777-777-||--9-9-9--9-9-9--9-9-9--9-9-9-555-555-555-555-||--9-9-9--9-9-9--9-9-9--9-9-9-555-555-555-555-||--9-9-9--9-9-9--9-9-9--9-9-9-555-555-555-555-|
|---------------------------------||---------------------------------||---------------------------------||-999-999-999-999-4b~-4b~-4b~-4b~-||-777-777-777-777-2b~-2b~-2b~-2b~-||-777-777-777-777-2b~-2b~-2b~-2b~-||-777-777-777-777-2b~-2b~-2b~-2b~-|
|-----------------------------------------------------------------||-----------------------------------------------------------------||-----------------------------------------------------------------||---------0---------------0---------------5---------------5-------||---------0---------------0---------------5---------------5-------||-0-0-0-0-0-0-0-0-0-0-0-0-0-0-0-0-5-5-5-5-5-5-5-5-5-5-5-5-5-5-5-5-| . . . . . . . . . . . . . . . . . . . . . . . . . . . .
|-----------------------------------------------------------------||-----------------------------------------------------------------||-----------------------------------------------------------------||---------7---------------7---------------2---------------2-------||---------7---------------7---------------2---------------2-------||-7-7-7-7-7-7-7-7-7-7-7-7-7-7-7-7-2-2-2-2-2-2-2-2-2-2-2-2-2-2-2-2-|
. . . . . . . . . . . . . . . . . . . . . . . . . . . .End on|------||------||--7~--||--5~--||--5~--||--5~--|
---------------------------------------------------------------------------- Waste A Moment Tuning:(Db Ab Db Gb Bb Eb)
Intro|--------------------------------------------------------------------||--------------------------------------------------------------------||--------------------------------------------------------------------||-7777777777777777-7777777777777777-777777777777777-xxxxxxxxxxxxxxxx-||-7777777777777777-8888888888888888-777777777777777-8888888888888888-||---------------------------------------------------0000000000000000-|
IntroGtr 1|--------------------------------------------------||--------------------------------------------------||--------5-----------5-----------9-----------------||--3-3-3-3-3-3-3-3-3-3-3-3-7-7-7-7-7-7-7-7-7-7-7-7-||--3-3-3-3-3-3-3-3-3-3-3-3-7-7-7-7-7-7-7-7-7-7-7-7-||--3-3-3-3-3-3-3-3-3-3-3-3-7-7-7-7-7-7-7-7-7-7-7-7-|
Gtr 2|------------------------------------------------------||------------------------------------------------------||--------------------------------------10-10-10-/9-9-9-||--3-3-3-3-3-3-3-3-3-3-3-3-7-7-7-7-7-7--x--x--x--x-x-x-||--3-3-3-3-3-3-3-3-3-3-3-3-7-7-7-7-7-7--8--8--8-/7-7-7-||--3-3-3-3-3-3-3-3-3-3-3-3-7-7-7-7-7-7-----------------|
|--0~------0~------||--0~------0~------||--9~------9~------||--7~------7~------||--7~------7~------||--7~------7~------|
VerseGtr 1|-0~------0~------0~---------------||-0~------0~------0~---------------||-2~------0~------9~------5~-------||-2~------2~------7~------5~-------||-0~------2~------7~------3~-------||-----------------7~------3~-------|
Gtr 2|-------3-------3-------3-----------------0-------0-------0-------||-----------------------------------------------------------------||--------------------------------x3-------------------------------||-----------------------------------------------------------------||-0-3-0---0-3-0---0-3-0---0-3-0-----------------------------------||-----------------------------------2-5-2---2-5-2---2-5-2---2-5-2-|
Pre-Chorus|--------------------------------------------------------------------||--------------------------------------------------------------------||--------------------------------------------------------------------||-7777777777777777-7777777777777777-777777777777777-xxxxxxxxxxxxxxxx-||-7777777777777777-8888888888888888-777777777777777-8888888888888888-||---------------------------------------------------0000000000000000-|
ChorusGtr 1|--------------------------------------------------||--------------------------------------------------||--5-5-5-5-5-5-5-5-5-5-5-5-9-9-9-9-9-9-9-9-9-9-9-9-||--3-3-3-3-3-3-3-3-3-3-3-3-7-7-7-7-7-7-7-7-7-7-7-7-||--3-3-3-3-3-3-3-3-3-3-3-3-7-7-7-7-7-7-7-7-7-7-7-7-||--3-3-3-3-3-3-3-3-3-3-3-3-7-7-7-7-7-7-7-7-7-7-7-7-|x2
|--------------------------0~----------------------||--------------------------0~----------------------||--5-5-5-5-5-5-5-5-5-5-5-5-9~----------------------||--3-3-3-3-3-3-3-3-3-3-3-3-7~----------------------||--3-3-3-3-3-3-3-3-3-3-3-3-7~----------------------||--3-3-3-3-3-3-3-3-3-3-3-3-7~----------------------|
Gtr 2|---------------------------------------------------||---------------------------------------------------||--------------------------------------101010-9-9-9-||--3-3-3-3-3-3-3-3-3-3-3-3-7-7-7-7-7-7--x-x-x-x-x-x-||--3-3-3-3-3-3-3-3-3-3-3-3-7-7-7-7-7-7--8-8-8-7-7-7-||--3-3-3-3-3-3-3-3-3-3-3-3-7-7-7-7-7-7--------------|x2
|---------------------------------------------------||---------------------------------------------------||---------------------------------------------------||--3-3-3-3-3-3-3-3-3-3-3-3--------------------------||--3-3-3-3-3-3-3-3-3-3-3-3--------------------------||--3-3-3-3-3-3-3-3-3-3-3-3--------------------------|
Repeat Verse
Pre-Chorus|-12--12--12--12--12--12--12--12--13--13--13--13--13--13--13--13---||---10--10--10--10--10--10--10--10--10--10--10--10--10--10--10--10-||------------------------------------------------------------------||------------------------------------------------------------------||------------------------------------------------------------------||------------------------------------------------------------------|
|-12--12--12--12--12--12--12--12--13--13--13--13--13--13--------||---10--10--10--10--10--10--10--10--10--10--10--10--10--10------||---------------------------------------------------------------||-----------------------------------------------------------0-0-||-----------------------------------------------------------0-0-||-----------------------------------------------------------0-0-|
. .ChorusGtr 1|--------------------------------------------------||--------------------------------------------------||--5-5-5-5-5-5-5-5-5-5-5-5-9-9-9-9-9-9-9-9-9-9-9-9-||--3-3-3-3-3-3-3-3-3-3-3-3-7-7-7-7-7-7-7-7-7-7-7-7-||--3-3-3-3-3-3-3-3-3-3-3-3-7-7-7-7-7-7-7-7-7-7-7-7-||--3-3-3-3-3-3-3-3-3-3-3-3-7-7-7-7-7-7-7-7-7-7-7-7-|x2
Gtr 2|---------------------------------------------------||---------------------------------------------------||--------------------------------------101010-9-9-9-||--3-3-3-3-3-3-3-3-3-3-3-3-7-7-7-7-7-7--x-x-x-x-x-x-||--3-3-3-3-3-3-3-3-3-3-3-3-7-7-7-7-7-7--8-8-8-7-7-7-||--3-3-3-3-3-3-3-3-3-3-3-3-7-7-7-7-7-7--------------|x2
Breakdown (both guitars)|-------------------------------------------------||-------------------------------------------------||-5-5-5-5-5-5-5-5-5-5-5-5-9-9-9-9-9-9-9-9-9-9-9-9-||-3-3-3-3-3-3-3-3-3-3-3-3-7-7-7-7-7-7-7-7-7-7-7-7-||-3-3-3-3-3-3-3-3-3-3-3-3-7-7-7-7-7-7-7-7-7-7-7-7-||-3-3-3-3-3-3-3-3-3-3-3-3-7-7-7-7-7-7-7-7-7-7-7-7-|x3
Bridge|---------------------------------------------------||---------------------------------------------------||-141414141414141414141414-161616161616161616161616-||--x-x-x-x-x-x-x-x-x-x-x-x--x-x-x-x-x-x-x-x-x-x-x-x-||-121212121212121212121212-141414141414141414141414-||---------------------------------------------------|
|---------------------------------------------------||---------------------------------------------------||-171717171717171717171717-191919191919212121212121-||--x-x-x-x-x-x-x-x-x-x-x-x--x-x-x-x-x-x-x-x-x-x-x-x-||-151515151515151515151515-171717171717191919191919-||---------------------------------------------------|
Outro|-----------------------------------------------------------------------||-----------------------------------------------------------------------||-12-12-12-12-12-12-12-12-7-7-7-7-7-7-7-7-------------------------------||-10-10-10-10-10-10-10-10-5-5-5-5-5-5-5-5-3-3xx-0--0-0-0-3-3xx-0--0-0-0-||-10-10-10-10-10-10-10-10-5-5-5-5-5-5-5-5-3-3xx-0--0-0-0-3-3xx-0--0-0-0-||-10-10-10-10-10-10-10-10-5-5-5-5-5-5-5-5-3-3xx-0--0-0-0-3-3xx-0--0-0-0-|
|--------------------------------------------------------||--------------------------------------------------------||-9-9-9-9-9-9-9-9-12-12-12-12-12-12-12-12----------------||-7-7-7-7-7-7-7-7-10-10-10-10-10-10-10-10-3-3xx-3--3-3-3-||-7-7-7-7-7-7-7-7-10-10-10-10-10-10-10-10-3-3xx-3--3-3-3-||-7-7-7-7-7-7-7-7-10-10-10-10-10-10-10-10-3-3xx-3--3-3-3-|
|---------------------------------|----------------||---------------------------------|----------------||---------------------------------|----------------||---------------------------------|-3-3xx-3--3-3-3-||-0-0-0-0-3p0-0-0-0-0-3p0-0-0-3p0-|-3-3xx-3--3-3-3-||-0-0-0-0-3p0-0-0-0-0-3p0-0-0-3p0-|-3-3xx-3--3-3-3-|
|---------------------------------|----------------||---------------------------------|----------------||---------------------------------|----------------||---------------------------------|-3-3xx-0~-------||-0-0-0-0-3p0-0-0-0-0-3p0-0-0-3p0-|-3-3xx-0~-------||-0-0-0-0-3p0-0-0-0-0-3p0-0-0-3p0-|-3-3xx-0~-------|
---------------------------------------------------------------------------- Grand Unification Pt2 Tuning:(E A D G B E)
Intro|------------------------------------------------------------------||------------------------------------------------------------------||---------5-7-5-----------5-7-5------------5-7-5-----------5-7-5---||-----5-7-------7-----5-7-------7------5-7-------7-----5-7-------7-||---7---------------7---------------5----------------5-------------||-5---------------5---------------3----------------3---------------|
|------------------------------------------------------------------||------------------------------------------------------------------||-12----9----------------------------------------------------------||-------------9---------9----10---7------9------10------12----10---||------------------------------------------------------------------||------------------------------------------------------------------|
|------------------------------------------------------------------||------------------------------------------------------------------||---------5-7-5-----------5-7-5------------5-7-5-----------5-7-5---||-----5-7-------7-----5-7-------7------5-7-------7-----5-7-------7-||---7---------------7---------------5----------------5-------------||-5---------------5---------------3----------------3---------------|
|------------------------------------------------------------------||------------------------------------------------------------------||-12-----9------------------------12-------------------------------||-10----10----10------------------10-----12----10------------------||-------------10-------------------------10----10------------------||------------------------------------------------------------------|
Verse|---------------------------------------------------------------||-----------------1-------1-------------------------------------||-5-------7-------2-------2-------7-------2-------5-------5-----||-5-------7-------2-------3-------7-------2-------5-------3-----||-3-------5-------0-------3-------5-------0-------3-------3-----||---------------------------------------------------------------|
|---------------------------------------------------------------||-----------------1---1---1---1-----------1---1-----------------||-5---5---7---7---2---2---2---2---7---7---2---2---5---5---5---5-||-5---5---7---7---2---2---3---3---7---7---2---2---5---5---3---3-||-3---3---5---5---0---0---3---3---5---5---0---0---3---3---3---3-||---------------------------------------------------------------|
Gtr 2 (or other hand on piano)|-8--7----------------------------8--7--------------------------||-------8-10-5--6-8--6--5---------------8-10-5--6-8--6--5-------||-------------------------5---5---------------------------5-----||---------------------------------------------------------------||---------------------------------------------------------------||---------------------------------------------------------------|
Back to Intro
Then... Hold my hand until...|---------------------------------------------------------------|----||-----------------1-------1-------------------------------------|----||-5-------7-------2-------2-------7-------2-------5-------5-----|-7~-||-5-------7-------2-------3-------7-------2-------5-------3-----|-7~-||-3-------5-------0-------3-------5-------0-------3-------3-----|-5~-||---------------------------------------------------------------|----|
...the waves come|---------------------------------------------------------------------||---------------------------------------------------------------------||-5555555555555555----------------------------------------------------||-5555555555555555-5555555555555555-7777777777777777-3333333333333333-||-3333333333333333-5555555555555555-7777777777777777-3333333333333333-||-3333333333333333-3333333333333333-5555555555555555-1111111111111111-|
|-----------------------------------||-----------------------------------||-----------------------------------||-5555555555555555-7777777777777777-||-3333333333333333-5555555555555555-||-3333333333333333-5555555555555555-|
|------------------------------------------------------------------|-----||------------------------------------------------------------------|-----||------------------------------------------------------------------|-----||-1010101010101010101010101010101010101010101010101010101010101010-|-10~-||--8-8-8-8-8-8-8-8-8-8-8-8-8-8-8-8-8-8-8-8-8-8-8-8-8-8-8-8-8-8-8-8-|-10~-||--8-8-8-8-8-8-8-8-8-8-8-8-8-8-8-8-8-8-8-8-8-8-8-8-8-8-8-8-8-8-8-8-|--8~-|
Then back to intro
End with|----------------------------------------------||-13---13---13---13---13---13---13---13---13~--||-14---14---14---14---14---14---14---14---14~--||----------------------------------------------||--0~------------------0~----------------------||----------------------------------------------|
---------------------------------------------------------------------------- Hazy Eyes Tuning:(D A D G B E)
IntroGtr 1|-------------------------------------------------------||-------------------------------------------------------||-6/7-7-7-9-6-6-6/7-7-7-9-6-6/7-7-7-9-6-6-6/7-7-7-9-6-6-||-------------------------------------------------------||-------------------------------------------------------||-------------------------------------------------------|
|---------------------------||-------8-7-----------------||-----------7-------6-7-9~--||---------------------------||-x-x-x-------x-x-x---------||-x-x-x-------x-x-x---------|
Gtr 2|------------------------------------------------------------------------||------------------------------------------------------------------------||-2-2-2-2-2-2-2-2-2-2-2-22-2-2-2-2-2-2-2-2-2-2-2-9-9-9-------7-7-7-------||-0-0-0-0-0-0-0-0-0-0-0-00-0-0-0-0-0-0-0-0-0-0-0-7-7-7-------5-5-5-------||-0-0-0-0-0-0-0-0-0-0-0-00-0-0-0-0-0-0-0-0-0-0-0-7-7-7-------5-5-5-------||-0-0-0-0-0-0-0-0-0-0-0-00-0-0-0-0-0-0-0-0-0-0-0-7-7-7-------5-5-5-------|
|----||----||----||-0~-||-0~-||-0~-|
VerseGtr 1|-------------------------------------------------||-------------------------------------------------||-------7-----------7-----------7-----------7-----||-----7---7-------7---7-------5---5-------5---5---||---5-------5---5-------0---5-------5---5-------0-||-0-----------0-----------5-----------5-----------|x2
|---------------------------------------------------||---------------------------------------------------||-------11-----------11-----------7-----------7-----||-----9----9-------9----9-------5---5-------5---5---||---9--------9---9--------9---5-------5---5-------5-||-9------------9------------5-----------5-----------|x2
Gtr 2 (second part)|---------------------------------------------------||-----3-2h3---------3-2h3-------3-5p3-------3-5p3---||---4------------4------------2-----------2---------||-4------------4------------0-----------0-----------||---------------------------------------------------||---------------------------------------------------|x2
Chorus|----------------|-------|-------------------------||----------------|-------|-------------------------||-14141414141414-|-------|-7-7-7-7-7-7-7-7-7-7-7-7-||--x-x-x-x-x-x-x-|-9-9-9-|-5-5-5-5-5-5-5-5-5-5-5-5-||-12121212121212-|-9-9-9-|-5-5-5-5-5-5-5-5-5-5-5-5-||----------------|-9-9-9-|-5-5-5-5-5-5-5-5-5-5-5-5-|x2
|--------------------------------------------------------------------------||--------------------------------------------------------------------------||-111111111111111111111111111111111111111111111111999999999999777777777777-||--x-x-x-x-x-x-x-x-x-x-x-x-9-9-9-9-9-9-9-9-9-9-9-9777777777777555555555555-||--9-9-9-9-9-9-9-9-9-9-9-9-9-9-9-9-9-9-9-9-9-9-9-9777777777777555555555555-||--------------------------9-9-9-9-9-9-9-9-9-9-9-9777777777777555555555555-|
|--------------------------------------------------------------------------||--------------------------------------------------------------------------||-11111111111111111111111111111111111111x---------999999999999777777777777-||--x-x-x-x-x-x-x-x-x-x-x-x-9-9-9-9-9-9-9x---------777777777777555555555555-||--9-9-9-9-9-9-9-9-9-9-9-9-9-9-9-9-9-9-9x---------777777777777555555555555-||--------------------------9-9-9-9-9-9-9x---------777777777777555555555555-|
Repeat Intro and Verse
Chorus|--------------------------------------------------------------------------||--------------------------------------------------------------------------||-11111111111111111111111111111111111111----------999999999999777777777777-||--x-x-x-x-x-x-x-x-x-x-x-x-9-9-9-9-9-9-9----------777777777777555555555555-||--9-x-9-9-9-x-9-9-9-x-9-9-9-9-9-9-9-9-9----------777777777777555555555555-||-------------------------------------------------777777777777555555555555-|
|--------------------------------------------------------------------------||--------------------------------------------------------------------------||-11111111111111111111111111111111111111x---------999999999999777777777777-||--x-x-x-x-x-x-x-x-x-x-x-x-9-9-9-9-9-9-9x---------777777777777555555555555-||--9-9-9-9-9-9-9-9-9-9-9-9-9-9-9-9-9-9-9x---------777777777777555555555555-||--------------------------9-9-9-9-9-9-9x---------777777777777555555555555-|
Interlude|-----------------------------------------------------------------------||-----------------------------------------------------------------------||-4-4-4-4-4-4-4-4-4-4-4-4-7-7-7-7-7-7-7-7-7-7-7-7-1414141211-1414141211-||-2-2-2-2-2-2-2-2-2-2-2-2-5-5-5-5-5-5-5-5-5-5-5-5--x-x-x-x-x--x-x-x-x-x-||-2-2-2-2-2-2-2-2-2-2-2-2-5-5-5-5-5-5-5-5-5-5-5-5-12121210-9-12121210-9-||-2-2-2-2-2-2-2-2-2-2-2-2-5-5-5-5-5-5-5-5-5-5-5-5-----------------------|
|-------------------------------------------------|----------------||-------------------------------------------------|----------------||-4-4-4-4-4-4-4-4-4-4-4-4-7-7-7-7-7-7-7-7-7-7-7-7-|-11111111111111-||-2-2-2-2-2-2-2-2-2-2-2-2-5-5-5-5-5-5-5-5-5-5-5-5-|--x-x-x-x-x-x-x-||-2-2-2-2-2-2-2-2-2-2-2-2-5-5-5-5-5-5-5-5-5-5-5-5-|--9-9-9-9-9-9-9-||-2-2-2-2-2-2-2-2-2-2-2-2-5-5-5-5-5-5-5-5-5-5-5-5-|----------------|x4
Outro|-------------------------------||-------------------------------||-------------------------------||-4-2-0-2~---------4-5~---------||-4-2-0-2~---------4-5~---------||-4-2-0-2~---------4-5~---------|
Gtr 1|-------------------------------------------------------||-------------------------------------------------------||-6/7-7-7-9-6-6-6/7-7-7-9-6-6/7-7-7-9-6-6-6/7-7-7-9-6-6-||-------------------------------------------------------||-------------------------------------------------------||-------------------------------------------------------|
|----------------------------||-------8-7------------------||-----------7-------6-7-9/x--||----------------------------||-x-x-x-------x-x-x----------||-x-x-x-------x-x-x----------|
Gtr 2|------------------------------------------------------------------------||------------------------------------------------------------------------||-2-2-2-2-2-2-2-2-2-2-2-22-2-2-2-2-2-2-2-2-2-2-2-9-9-9-------7-7-7-------||-0-0-0-0-0-0-0-0-0-0-0-00-0-0-0-0-0-0-0-0-0-0-0-7-7-7-------5-5-5-------||-0-0-0-0-0-0-0-0-0-0-0-00-0-0-0-0-0-0-0-0-0-0-0-7-7-7-------5-5-5-------||-0-0-0-0-0-0-0-0-0-0-0-00-0-0-0-0-0-0-0-0-0-0-0-7-7-7-------5-5-5-------|
---------------------------------------------------------------------------- Build An Army Tuning:(Db Ab Db Gb Bb Eb)
IntroGtr 1|-------------------------------------------------------------------||-------------------------------------------------------------------||-------------------------------------------------------------------||-----11---11-----12---12-----11---12-----7---7-----9---9-----7---9-||-9-9----9----9-9----9----9-9----9----5-5---5---5-5---5---5-5---5---||-9-9----9----9-9----9----9-9----9----5-5---5---5-5---5---5-5---5---|
Gtr 2|----------------------------------------------------------------||----------------------------------------------------------------||----------------------------------------------------------------||----------------------------------------------------------------||-----9---9-----10---10-----9---10-----5---5-----7---7-----5---7-||-9-9---9---9-9----9----9-9---9----5-5---5---5-5---5---5-5---5---|
VerseGtr 1|-------------------------------------------------------------------||-------------------------------------------------------------------||-------------------------------------------------------------------||-----11---11-----12---12-----11---12-----7---7-----9---9-----7---9-||-9-9----9----9-9----9----9-9----9----5-5---5---5-5---5---5-5---5---||-9-9----9----9-9----9----9-9----9----5-5---5---5-5---5---5-5---5---|
Gtr 2|----------------------------------------------------------------|----||----------------------------------------------------------------|----||----------------------------------------------------------------|----||----------------------------------------------------------------|-7^-||-----9---9-----10---10-----9---10-----5---5-----7---7-----5---7-|----||-9-9---9---9-9----9----9-9---9----5-5---5---5-5---5---5-5---5---|----|
Chorus|------------------------------------------||------------------------------------------||------------------------------------------||-99-89-9-89-9-89\121212-55-45-5-45-5-2222-||-99-89-9-89-9-89\121212-55-45-5-45-5-2222-||-99-89-9-89-9-89\121212-55-45-5-45-5-2222-|
|-------------------------------------------||-------------------------------------------||-------------------------------------------||-99-89-9-89-9-89\121212-55-45-5-45-5-2-2-2-||-99-89-9-89-9-89\121212-55-45-5-45-5-2-2-2-||-99-89-9-89-9-89\121212-55-45-5-45-5-2-2-2-| . . .Back to Intro
Verse 2Gtr 1|----------------------------------------------------------------------||----------------------------------------------------------------------||----------------------------------------------------------------------||-----11---11-----12---12-----11---12-----9---9-----11---11-----9---11-||-9-9----9----9-9----9----9-9----9----7-7---7---7-7----7----7-7---7----||-9-9----9----9-9----9----9-9----9----7-7---7---7-7----7----7-7---7----|
|-------------------------------------------------------------||-------------------------------------------------------------||-------------------------------------------------------------||-----7---7-----9---9-----7---9-----4---4-----5---7-----7---9-||-5-5---5---5-5---5---5-5---5---2-2---2---2-2---2---5-5---5---||-5-5---5---5-5---5---5-5---5---2-2---2---2-2---2---5-5---5---|
Gtr 2|-14-14-14-14-14-14-14-14-12-12-12-12-12-12-12-12-||-15-15-15-15-15-15-15-15-14-14-14-14-14-14-14-14-||-------------------------------------------------||-------------------------------------------------||-------------------------------------------------||-------------------------------------------------|
Repeat Chorus
After ChorusGtr 1|---------------------------------------------------|--------------------||---------------------------------------------------|--------------------||-14141414141414141414141414141414-9999999999999999-|--------------------||-12121212121212121212121212121212-7777777777777777-|-55-45-5-45-5-2-2-2-||-12121212121212121212121212121212-7777777777777777-|-55-45-5-45-5-2-2-2-||-12121212121212121212121212121212-7777777777777777-|-55-45-5-45-5-2-2-2-|
. . .Gtr 2|---------------------------------------------||---------------------------------------------||-1111111111111111----99999999----77777777----||--x-x-x-x-x-x-x-x-x2-xxxxxxxx-x2-xxxxxxxx-x4-||--9-9-9-9-9-9-9-9----77777777----55555555----||---------------------------------------------|
Verse 3 (gtr 3)|---------------------------------------||---------------------------------------||-11~-------9~-------7~-------4~--------||--9~-------7~-------5~-------2~--------||--9~-------7~-------5~-------2~--------||---------------------------------------|
Gtr 1 and 2: same
Pre-chorus|-------------------------||-------------------------||-------------------------||-------2-2-2-------2-2-2-||-2-2-2-2-2-2-2-2-2-2-2-2-||-2-2-2-------2-2-2-------|
. . . . . .ChorusGtr 1|---------------------------------------------------|--------------------||---------------------------------------------------|--------------------||-14141414141414141414141414141414-9999999999999999-|--------------------||-12121212121212121212121212121212-7777777777777777-|-55-45-5-45-5-2-2-2-||-12121212121212121212121212121212-7777777777777777-|-55-45-5-45-5-2-2-2-||-12121212121212121212121212121212-7777777777777777-|-55-45-5-45-5-2-2-2-|
. . .Gtr 2|---------------------------------------------||---------------------------------------------||-1111111111111111----99999999----77777777----||--x-x-x-x-x-x-x-x-x2-xxxxxxxx-x2-xxxxxxxx-x4-||--9-9-9-9-9-9-9-9----77777777----55555555----||---------------------------------------------|
Then...|------------------------------------------||------------------------------------------||------------------------------------------||-99-89-9-89-9-89\121212-55-45-5-45-5-2222-||-99-89-9-89-9-89\121212-55-45-5-45-5-2222-||-99-89-9-89-9-89\121212-55-45-5-45-5-2222-|
|--------------------------------------------------------------------||--------------------------------------------------------------------||--------------------------------------------------------------------||-99-89-9-89-9-89\121212-55-45-5-455-8-8-8-8101010101212121210101010-||-99-89-9-89-9-89\121212-55-45-5-455-8-8-8-8-8-8-8-8-8-8-8-8-8-8-8-8-||-99-89-9-89-9-89\121212-55-45-5-455-8-8-8-8-8-8-8-8-8-8-8-8-8-8-8-8-|
BreakdownGtr 1|------------------------------------------------------------------||------------------------------------------------------------------||------------------------------------------------------------------||------------------------------------------------------------------||-7-5-7-8-7-----10-8-7-8-----12-10-8-10-----1312101210810878757875-||-----------0-0----------0-0------------0-0------------------------|
Gtr 2|------------------------------------------------------------------||------------------------------------------------------------------||-------------------------------------------------2~---------------||-------------------------------------------------0~---------------||-0---------0-0----------0-0------------0-0-------0~---------------||-0---------0-0----------0-0------------0-0-------0~---------------|
|-----------------------------------------||-----------------------------------------||-----------------------------------------||-----------------------------------------||-0-13-12-10-12-10-8-10-8-7-8-7-5-7-8-7-5-||-----------------------------------------|
Repeat 1st Breakdown part
Outro|----------------------------------||----------------------------------||----------------------------------||----------------------------------||-----8\10/8----------8\10/8-7-----||-00000000000000875555555555555555-|
Gtr 1|-------------------------------------------------||-------------------------------------------------||-------------------------------------------------||-0-0-0-0-0-0-0-0-8-8-8-8-8-8-8-8-3-3-3-3-3-3-3-3-||-0-0-0-0-0-0-0-0-8-8-8-8-8-8-8-8-3-3-3-3-3-3-3-3-||-0-0-0-0-0-0-0-0-8-8-8-8-8-8-8-8-3-3-3-3-3-3-3-3-|
Gtr 2|--------------------------------------||--------------------------------------||-1010101010101010----5555555555555555-||--x-x-x-x-x-x-x-x-x4-xxxxxxxxxxxxxxxx-||--8-8-8-8-8-8-8-8----3333333333333333-||--------------------------------------|
Gtr 1|----------------------------------||----------------------------------||----------------------------------||----------------------------------||--3333333-3333333-7777777-7777777-||--3333333-3333333-7777777-7777777-|
....... ....... ....... ......Gtr 2|------------------------------------------------||------------------------------------------------||--10101010101010-9999999-14141414141414-7777777-||---x-x-x-x-x-x-x-xxxxxxx--x-x-x-x-x-x-x-xxxxxxx-||---8-8-8-8-8-8-8-7777777-12121212121212-5555555-||------------------------------------------------|
Gtr 1|-------------------------------------------------||-------------------------------------------------||-------------------------------------------------||-8-8-8-8-8-8-8-8-3-3-3-3-3-3-3-3-8-8-8-8-8-8-8-8-||-8-8-8-8-8-8-8-8-3-3-3-3-3-3-3-3-8-8-8-8-8-8-8-8-||-8-8-8-8-8-8-8-8-3-3-3-3-3-3-3-3-8-8-8-8-8-8-8-8-|
Gtr 2|----------------------------------------------------------||----------------------------------------------------------||-1010101010101010----5555555555555555-1010101010101010----||--x-x-x-x-x-x-x-x-x2-xxxxxxxxxxxxxxxx--x-x-x-x-x-x-x-x-x2-||--8-8-8-8-8-8-8-8----3333333333333333--8-8-8-8-8-8-8-8----||----------------------------------------------------------|
Gtr 1|----------------------------------||----------------------------------||----------------------------------||----------------------------------||--3333333-3333333-3333333-3333333-||--3333333-3333333-3333333-3333333-|
....... ....... ....... ......Gtr 2|-------------------------------------------------------||-------------------------------------------------------||--10101010101010-9999999-14141414141414-17171717171717-||---x-x-x-x-x-x-x-xxxxxxx--x-x-x-x-x-x-x--x-x-x-x-x-x-x-||---8-8-8-8-8-8-8-7777777-12121212121212-15151515151515-||-------------------------------------------------------|
Gtr 1|------------------------------------------------------------------||------------------------------------------------------------------||------------------------------------------------------------------||------------------------------------------------------------------||-7-5-7-8-7-----10-8-7-8-----12-10-8-10-----1312101210810878757875-||-----------0-0----------0-0------------0-0------------------------|
Gtr 2|------------------------------------------------------------------||------------------------------------------------------------------||-------------------------------------------2222222222222222222222-||-------------------------------------------0000000000000000000000-||-0---------0-0----------0-0------------0-0-0000000000000000000000-||-0---------0-0----------0-0------------0-0-0000000000000000000000-|x2
Gtr 1|-----------------------------------------||-----------------------------------------||-----------------------------------------||-----------------------------------------||-0-13-12-10-12-10-8-10-8-7-8-7-5-7-8-7-5-||-----------------------------------------|
Gtr 2|--------------------------------------||--------------------------------------||--------------------------------------||--------------------------------------||--------------------------------------||-555555555555555577777777333333330----|
End On|----||----||----||-0~-||-0~-||-0~-|
---------------------------------------------------------------------------- Open Your Eyes Tuning:(C G C F A D)
IntroGtr 1|-5-----5-----5-----5-----5-----|-5-----5-----5-----5-----5-----||-----3-----3-----3-----3-----3-|-----3-----3-----3-----3-----3-||---4-----4-----4-----4-----4---|---4-----4-----4-----4-----4---||-------------------------------|-------------------------------||-------------------------------|-------------------------------||-------------------------------|-------------------------------|
Gtr 2|-------------------------------|---------------------------||-------------------------------|---------------------------||-------------------------------|---------------------------||-------------------------------|---------------------------||-5-5-5-5-5-5-5-5-5-5-5-5-5-5-5-|-5-5-5-5-5-5-5-5-7-7-7-2-2-||-5-5-5-5-5-5-5-5-5-5-5-5-5-5-5-|-5-5-5-5-5-5-5-5-7-7-7-2-2-| . . . . . . . . . . . . . . . . . . . . . . . . . . . .
that’s all i could get...rest is pretty much the same ---------------------------------------------------------------------------- Lost Tears In The Rain Tuning:(C G C F A D)
Intro|-----------------------------------------||-----------------------------------------||-----------------------------------------||-1010101010101010------------------------||--8-8-8-8-8-8-8-8-x3-10101010-8888888888-||---------------------10101010-8888888888-|
. . . . . . . . . . . . . . . . .|--------------------------------------||--------------------------------------||--------------------------------------||-1010101010101010------------88888888-||--8-8-8-8-8-8-8-8-x3-8888888888888888-||---------------------8888888888888888-| . . . . . . . . ............
Intro|-------------------------------------------------||-------------------------------------------------||--------------9h10-9h10-9/7--------9h10-9h10-9/5-||-------------------------------------------------||-121212121212---------------000000---------------||-121212121212---------------000000---------------|
. . . . . . ...... |---------------------------------------------------| |----||---------------------------------------------------| |----||--------9h10-9h10-9\12--------------12p10-9h10-9\7-| |-2~-||---------------------------------------------------| |-0~-||-888888----------------101010101010----------------| |-0~-||-888888----------------101010101010----------------|x2|-0~-|
...... . . . . . .Verse|-13-------13-------13----12-------12------12----||----10-------10-------------10-------10---------||-------10-------10----10-------10-------10---10-||------------------------------------------------||------------------------------------------------||------------------------------------------------|x6
Pre-Chorus|----------------------------------||----------------------------------||----------------------------------||----------------------------------||--0000000-0000000-8888888-8888888-||--0000000-0000000-8888888-8888888-|
....... ....... ....... .......|------------------------------------------------||------------------------------------------------||------------------------------------------------||--------------------------------------------555-||--10101010101010-10101010101010-8888888-5555555-||--10101010101010-10101010101010-8888888-5555555-|
. . . . . . . . . . . . . . ....... ....ChorusGtr 1|--------------------------------------------------------------------||--------------------------------------------------------------------||-5555555555555555-10101010101010101010101010101010-2222222222222222-||-3333333333333333--8-8-8-8-8-8-8-8-8-8-8-8-8-8-8-8-0000000000000000-||-3333333333333333--8-8-8-8-8-8-8-8-8-8-8-8-8-8-8-8-0000000000000000-||-3333333333333333--8-8-8-8-8-8-8-8-8-8-8-8-8-8-8-8-0000000000000000-|
|---------------------------------------------------||---------------------------------------------------||-5555555555555555-10101010101010101010101010101010-||-3333333333333333--8-8-8-8-8-8-8-8-8-8-8-8-8-8-8-8-||-3333333333333333--8-8-8-8-8-8-8-8-8-8-8-8-8-8-8-8-||-3333333333333333--8-8-8-8-8-8-8-8-8-8-8-8-8-8-8-8-|
Gtr 2|-1---3p1----1---1---3p1----1---1---3p1----1---1---3p1--||---1------1---1---1------1---1---1------1---1---1------||-------------------------------------------------------||-------------------------------------------------------||-------------------------------------------------------||-------------------------------------------------------|
Back to intro|-------------------------------------------------||-------------------------------------------------||--------------9h10-9h10-9/7--------9h10-9h10-9/5-||-------------------------------------------------||-121212121212---------------000000---------------||-121212121212---------------000000---------------|
. . . . . . ......|---------------------------------------------------|----||---------------------------------------------------|----||--------
Tap to rate this tab
 
# A B C D E F G H I J K L M N O P Q R S T U V W X Y Z