Fightstar - Sleep Well Tonight tab

Tabbed by: Ciaran Plummer
Email: just_ciaran@hotmail.co.uk

Tuning: dodgy as hell, lol. f/g#/c/C#/G#/C#
        put the thickest three strings into drop C#
        then put the thinnest three half a step above standard.
        so 
        6th: 1 and a half steps down
        5th: half a step down
        4th: half a step down
        3rd: half a step up
        2nd: half a step up
        1st: half a step up

| /  slide up
| \  slide down
| h  hammer-on
| p  pull-off
| ~  let-ring
| n  strum the strings above the nut (harmonic)

<>

Intro|-------------------------------------||-------------------------------------||-------------------------------------||-4~----0~--------4~--------0~--------||-4~----0~--------4~--------0~--------||-4~----0~--------4~--------0~--------|
Pre-Verse|------0-0--------0-0--------0-0--------0-0--||-------0-0--------0-0--------0-0--------0-0-||---0----------0----------0----------0-------||-4---------0----------4----------0----------| (Times 2)|--------------------------------------------||--------------------------------------------|
|-0~----0~----0~----||-0~----0~----0~----||-0~----0~----0~----||-4~----4~----4~----||-------------------||-------------------|
Verse|-------------------------------------||-------------------------------------||-------------------------------------||-4~----0~--------4~--------0~--------| (Times 2)|-4~----0~--------4~--------0~--------||-4~----0~--------4~--------0~--------|
|------0-0--------0-0--------0-0--------0-0--||-------0-0--------0-0--------0-0--------0-0-||---0----------0----------0----------0-------||-4---------0----------4----------0----------||--------------------------------------------||--------------------------------------------|
|-------------------------------------||-------------------------------------||-------------------------------------||-4~----0~--------4~--------0~--------||-4~----0~--------4~--------0~--------||-4~----0~--------4~--------0~--------|
|------0-0--------0-0--------0-0--------0-0--||-------0-0--------0-0--------0-0--------0-0-||---0----------0----------0----------0-------||-4---------0----------4----------0----------||--------------------------------------------||--------------------------------------------|
|-------------------------------------||-------------------------------------||-------------------------------------||-4~----0~--------4~--------0~--------||-4~----0~--------4~--------0~--------||-4~----0~--------4~--------0~--------|
Pre-Chorus|---------------------------------------------------||---------------------------------------------------||---------------------------------------4c----7c----||-4p2-2-2-2-2-2-2-2--2p0-0-0-0-0-0-0-0--4c----7c----||-4p2-2-2-2-2-2-2-2--2p0-0-0-0-0-0-0-0--4c----7c----||-4p2-2-2-2-2-2-2-2--2p0-0-0-0-0-0-0-0--4c----7c----|| . . . . . . . . . . . . . .
Chorus|-----------------------------------------------||-----------------------------------------------||-----------------------------------------------||-0-0-0-0-0-0--0-0--0-0--0-0-0-0-0-0--0-0--0-0--||-0-0-0-0-0-0--0-0--0-0--0-0-0-0-0-0--0-0--0-0--||-0-0-0-0-0-0--0-0--0-0--0-0-0-0-0-0--0-0--0-0--|| . . . . . . . . . . . . . . . . . . . .
|------------------------------------||------------------------------------||------------------------7c----2c----||-4-4-4-4-4-4--4-4--4-4--7c----2c----||-4-4-4-4-4-4--4-4--4-4--7c----2c----||-4-4-4-4-4-4--4-4--4-4--7c----2c----|| . . . . . . . . . .
|-----------------------------------------------||-----------------------------------------------||-----------------------------------------------||-0-0-0-0-0-0--0-0--0-0--0-0-0-0-0-0--0-0--0-0--||-0-0-0-0-0-0--0-0--0-0--0-0-0-0-0-0--0-0--0-0--||-0-0-0-0-0-0--0-0--0-0--0-0-0-0-0-0--0-0--0-0--|| . . . . . . . . . . . . . . . . . . . .
|------------------------------------||------------------------------------||------------------------7c----2c----||-4-4-4-4-4-4--4-4--4-4--7c----2c----||-4-4-4-4-4-4--4-4--4-4--7c----2c----||-4-4-4-4-4-4--4-4--4-4--7c----2c----|| . . . . . . . . . .
After-Chorus|--------------------0---------------------------------||----------------------0---0---------------------------||--------7---------------0---------7-------------------||-0-0--0-7--0-0--0-0--------0-0--0-7--0-0--0-0--4h7p0--||-0-0--0-7--0-0--0-0--------0-0--0-7--0-0--0-0--4h7p0--||-0-0--0-7--0-0--0-0--------0-0--0-7--0-0--0-0--4h7p0--|| . . . . . . . . . . . . . .
Pre-Verse|------0-0--------0-0--------0-0--------0-0--||-------0-0--------0-0--------0-0--------0-0-||---0----------0----------0----------0-------||-4---------0----------4----------0----------| (Times 2)|--------------------------------------------||--------------------------------------------|
|-0~----0~----0~----||-0~----0~----0~----||-0~----0~----0~----||-4~----4~----4~----||-------------------||-------------------|
Verse|-------------------------------------||-------------------------------------||-------------------------------------||-4~----0~--------4~--------0~--------||-4~----0~--------4~--------0~--------||-4~----0~--------4~--------0~--------|
|------0-0--------0-0--------0-0--------0-0--||-------0-0--------0-0--------0-0--------0-0-||---0----------0----------0----------0-------||-4---------0----------4----------0----------||--------------------------------------------||--------------------------------------------|
|-------------------------------------||-------------------------------------||-------------------------------------||-4~----0~--------4~--------0~--------||-4~----0~--------4~--------0~--------||-4~----0~--------4~--------0~--------|
|------0-0--------0-0--------0-0--------0-0--||-------0-0--------0-0--------0-0--------0-0-||---0----------0----------0----------0-------||-4---------0----------4----------0----------||--------------------------------------------||--------------------------------------------|
|-------------------------------------||-------------------------------------||-------------------------------------||-4~----0~--------4~--------0~--------||-4~----0~--------4~--------0~--------||-4~----0~--------4~--------0~--------|
Pre-Chorus|---------------------------------------------------||---------------------------------------------------||---------------------------------------4c----7c----||-4p2-2-2-2-2-2-2-2--2p0-0-0-0-0-0-0-0--4c----7c----||-4p2-2-2-2-2-2-2-2--2p0-0-0-0-0-0-0-0--4c----7c----||-4p2-2-2-2-2-2-2-2--2p0-0-0-0-0-0-0-0--4c----7c----|| . . . . . . . . . . . . . .
Chorus|-----------------------------------------------||-----------------------------------------------||-----------------------------------------------||-0-0-0-0-0-0--0-0--0-0--0-0-0-0-0-0--0-0--0-0--||-0-0-0-0-0-0--0-0--0-0--0-0-0-0-0-0--0-0--0-0--||-0-0-0-0-0-0--0-0--0-0--0-0-0-0-0-0--0-0--0-0--|| . . . . . . . . . . . . . . . . . . . .
|------------------------------------||------------------------------------||------------------------7c----2c----||-4-4-4-4-4-4--4-4--4-4--7c----2c----||-4-4-4-4-4-4--4-4--4-4--7c----2c----||-4-4-4-4-4-4--4-4--4-4--7c----2c----|| . . . . . . . . . .
|-----------------------------------------------||-----------------------------------------------||-----------------------------------------------||-0-0-0-0-0-0--0-0--0-0--0-0-0-0-0-0--0-0--0-0--||-0-0-0-0-0-0--0-0--0-0--0-0-0-0-0-0--0-0--0-0--||-0-0-0-0-0-0--0-0--0-0--0-0-0-0-0-0--0-0--0-0--|| . . . . . . . . . . . . . . . . . . . .
|------------------------------------||------------------------------------||------------------------7c----2c----||-4-4-4-4-4-4--4-4--4-4--7c----2c----||-4-4-4-4-4-4--4-4--4-4--7c----2c----||-4-4-4-4-4-4--4-4--4-4--7c----2c----|| . . . . . . . . . .
Break|------0-0--------0-0--------0-0--------0-0--||-------0-0--------0-0--------0-0--------0-0-||---0----------0----------0----------0-------||-4---------0----------4----------0----------| (Times 2)|--------------------------------------------||--------------------------------------------|
|------0-0--------0-0--0~-----------------0n--------||-------0-0--------0-0-0~-----------------0n--------||---0----------0-------0~-----------------0n--------||-4---------4----------4~-----------------0n--------| |-----------------------------------------0n--------||-----------------------------------------0n--------|
Bridge|-------------||-------------||-2c----2c----||-2c----2c----||-2c----2c----||-2c----2c----|
|-----------------------------------------------------------||-----------------------------------------------------------||---------7----------7------7----------7----------7------7--||-0-0-0-0-7--0-0-0-0-7--0-0-7--0-0-0-0-7--0-0-0-0-7--0-0-7--||-0-0-0-0-7--0-0-0-0-7--0-0-7--0-0-0-0-7--0-0-0-0-7--0-0-7--||-0-0-0-0-7--0-0-0-0-7--0-0-7--0-0-0-0-7--0-0-0-0-7--0-0-7--|| . . . . . . . . . . . . . . . . . . . .
|-------------------------------------------------------------||-------------------------------------------------------------||-------------------------------------------------------------||-----6---6-----4---4-----4h6p4-----6---6-----4---4-----4h6p4-||-------------------------------------------------------------||-4-4---4---4-4---4---4-4-------4-4---4---4-4---4---4-4-------|| . . . . . . . . . . . . . . . .
|-----------------------------------------------------------||-----------------------------------------------------------||---------7----------7------7----------7----------7------7--||-0-0-0-0-7--0-0-0-0-7--0-0-7--0-0-0-0-7--0-0-0-0-7--0-0-7--||-0-0-0-0-7--0-0-0-0-7--0-0-7--0-0-0-0-7--0-0-0-0-7--0-0-7--||-0-0-0-0-7--0-0-0-0-7--0-0-7--0-0-0-0-7--0-0-0-0-7--0-0-7--|| . . . . . . . . . . . . . . . . . . . .
|------------------------------------------------||------------------------------------------------||------------------------------------------------||-----6---6-----4---4-----4h6p4-----6---6-----4--||------------------------------------------------||-4-4---4---4-4---4---4-4-------4-4---4---4-4----|| . . . . . . . . . . . . .
Outro|-------------------------------||-------------------------------||-------------------------------||-0c------------4c------7c------||-0c------------4c------7c------||-0c------------4c------7c------|
|------0-0--------0-0--------0-0--------0-0--||-------0-0--------0-0--------0-0--------0-0-||----9-----------9---------9----------9------||--7-----------7---------7----------7--------||--------------------------------------------||--------------------------------------------|
|-----------------------------------------------||-----------------------------------------------||-----------------------------------------------||-4-4-4-4-4-4--4-4--4-4--4-4-4-4-4-4--4-4--7-7--||-4-4-4-4-4-4--4-4--4-4--4-4-4-4-4-4--4-4--7-7--||-4-4-4-4-4-4--4-4--4-4--4-4-4-4-4-4--4-4--7-7--|
|------0-0--------0-0--------0-0--------0-0--||-------0-0--------0-0--------0-0--------0-0-||----9-----------9---------9----------9------||--7-----------7---------7----------7--------||--------------------------------------------||--------------------------------------------|
|-----------------------------------------------||-----------------------------------------------||-----------------------------------------------||-4-4-4-4-4-4--4-4--4-4--4-4-4-4-4-4--4-4--7-7--||-4-4-4-4-4-4--4-4--4-4--4-4-4-4-4-4--4-4--7-7--||-4-4-4-4-4-4--4-4--4-4--4-4-4-4-4-4--4-4--7-7--|
|------0-0--------0-0--------0-0--------0-0--||-------0-0--------0-0--------0-0--------0-0-||----9-----------9---------9----------9------||--7-----------7---------7----------7--------||--------------------------------------------||--------------------------------------------|
|------------------------------------------||------------------------------------------||------------------------------------------||-4-4-4-4-4-4--4-4--4-4--4-4-4-4-4-4--4-4--||-4-4-4-4-4-4--4-4--4-4--4-4-4-4-4-4--4-4--||-4-4-4-4-4-4--4-4--4-4--4-4-4-4-4-4--4-4--|
Tap to rate this tab
 
# A B C D E F G H I J K L M N O P Q R S T U V W X Y Z