Finger Eleven – Tip tab

<('.'<) <('.')> (>'.')> JacoD™
"Tip" by Finger Eleven
>From the album TIP


Tuned in Drop D down half a step
(low to high: Db Ab Db Gb Bb Eb)

Based on the "Tip" CD version.

Intro-------1-1----1--|R-------1-1----0--|E-----------------|P----3------------|E-----------0h2---|A--0--------0-----|T
Verse
Gtr. 1-----------------------------|-----------------------------|---------------------4--4--4-|--0--3-3-3--3-3-3-3--4--4--4-|--0--3-3-3--3-3-3-3--2--2--2-|--0--3-3-3--3-3-3-3----------|
Gtr. 2------------------------------|------------------------------|-----101010-10101010----------|--0--101010-10101010-9--9--9--|--0--8-8-8--8-8-8-8--9--9--9--|--0------------------9--9--9--|
Chorus RIFF 1
Gtr. 2---------------------------------------------------|---------------------------------------------------|---------------------------------------------------|--7---7---7---7---------7---7---7---7--------------|---------------------------------------------------|----7---7---7---7---888---7---7---7---7--1010/1212-|
RIFF 2
Gtr. 1 (w/ wah)------------------| Repeat------------------| this------------------| four------------------| times------------------|--0-0-------------|
Gtr. 2------------------| Repeat------------------| this------------------| four------------------| times------6-5-6-8-6-5-|------------------|
RIFF 3
---------------------------|---------------------------|---------------------------|--7---7---7---7------------|---------------------------|----7---7---7---7---10/12--|
Bridge[Note: this part was simply too difficult to line upon my own so figure it out yourself :)]Gtr. 1---------------------------| Repeat---------------------------| This---------------------------| Five--0--0--8-8-8--5-5-5--7--7-| Times--0--0--8-8-8--5-5-5--7--7-|--0--0--8-8-8--5-5-5--7--7-|
Gtr. 2 (thanks to MatCod Shakur for this part)----------------------------------------------------------------|----------------------------------------------------------------|--5--7--5--7--5--7----7-7-7--9---5--7--5--7--5--7---14-14--7--9-|--x--x--x--x--x--x----x-x-x--x---x--x--x--x--x--x----x--x--x--x-|--3--5--3--5--3--5----5-5-5--7---3--5--3--5--3--5---12-12--5--7-|----------------------------------------------------------------|
-------------------------------------------------------------|-------------------------------------------------------------|--5-7-5-7-5-7--7-7-7--9---5-7-5-7-5-7--14-14--15-14-14-15-14-|--x-x-x-x-x-x--x-x-x--x---x-x-x-x-x-x--x---x--x--x--x--x--x--|--3-5-3-5-3-5--5-5-5--7---3-5-3-5-3-5--12-12--13-12-12-13-12-|-------------------------------------------------------------|
-----------------------------|-----------------------------|--5--7--5--7--5--7--7-7-7--9-|--x--x--x--x--x--x--x-x-x--x-|--3--5--3--5--3--5--5-5-5--7-|-----------------------------|
Last Chorus RIFF 4
Gtr. 1--------------------------------------|--------------------------------------|--------------------------------------|--0--0--8-8-8--5-5--5-5--5-5--7-7h8p7-|--0--0--8-8-8--5-5--5-5--5-5--7-7h8p7-|--0--0--8-8-8--5-5--5-5--5-5--7-7h8p7-| "Some other day..."
Gtr. 2---------------------------------------|---------------------------------------|--5-7-5-7-5-7--7-7--7-7--7-7--9-9h10p9-|--x-x-x-x-x-x--x-x--x-x--x-x--x-x-x--x-|--3-5-3-5-3-5--5-5--5-5--5-5--7-7h8-p7-|---------------------------------------|
RIFF 5
Gtr. 1-------------------------------|-------------------------------|-------------------------------|--7-7--7-7--7-7--7-7--10-10-10-|--7-7--7-7--7-7--7-7--10-10-10-|--7-7--7-7--7-7--7-7--10-10-10-|
Gtr. 2-------------------------------|-------------------------------|--9-9--9-9--9-9--9-9--12-12-12-|--x-x--x-x--x-x--x-x--xx-xx-xx-|--7-7--7-7--7-7--7-7--10-10-10-|-------------------------------|
Outro Sim. to verse
Add RIFF 6---------|-8b10----|------7~-|---------|---------|---------|
This is 99.9% accurate.. I hope... Thx to MatCod and JacoD. JACOD!
Please rate this tab:
x1.0