Finley - Ad Occhi Chiusi tab

Artist: Finley
Song: Ad Occhi Chiusi
Album: Adrenalina
Tabs by: kia

INTRO:

|---|-----| ---|--------------||-8-|-----| -8-|--------------||-8-|-----| -8-|---0------0---||---|-----| ---|--------------||-6-|-5-6-| -6-|-6---6--5---5-||---|-----| ---|--------------|
VERSE: [Da te mi nasconderò..]
|---|-----| ---|--------------||-8-|-----| -8-|--------------||-8-|-----| -8-|---0------0---||---|-----| ---|--------------||-6-|-5-6-| -6-|-6---6--5---5-||---|-----| ---|--------------|
[Sarò invisibile..]
|------------||------------||----5-----8-||-3--5--6--8-||-3--3--6--6-||-1-----4----|
CHORUS: [Disegnerò ad occhi chiusi..]
|------------| |------||------------| |------||----5-----8-| |------||-3--5--6--8-| |-3--4-||-3--3--6--6-| |-3--4-||-1-----4----| x 2 |-1--6-|
PRE VERSE:
|---|--------------||-8-|--------------||-8-|---0------0---||---|--------------||-6-|-6---6--5---5-||---|--------------|
VERSE: [Fin quando nn ti sveglierai..]
|---|-----| ---|--------------||-8-|-----| -8-|--------------||-8-|-----| -8-|---0------0---||---|-----| ---|--------------||-6-|-5-6-| -6-|-6---6--5---5-||---|-----| ---|--------------|
[Sembra impossibile..]
|------------||------------||----5-----8-||-3--5--6--8-||-3--3--6--6-||-1-----4----|
[Disegnerò ad occhi chiusi..]
|------------| |------||------------| |------||----5-----8-| |------||-3--5--6--8-| |-3--4-||-3--3--6--6-| |-3--4-||-1-----4----| x 2 |-1--6-|
[2.35] END:
|-------------| |---||-------------| |---||-8-----------| |-8-||-8--8--10--6-| |-8-||-6--8--10--6-| |-6-||----6--8---4-| x5 |---|
Baci - kia - se ve serve qlks -> chiara.azzini@hotmail.it - ROCK ON!
Tap to rate this tab
 
# A B C D E F G H I J K L M N O P Q R S T U V W X Y Z