Finley - Veleno tab

Artist: Finley
Song: Veleno
Album: Adrenalina
Tabs by: kia

[Ps.<-> = armonici, s = slide]

INTRO:

|----7--5-----7--5-|----------||-5--------5-------|----------||------------------|-1-1--1-1-||------------------|-2-2--2-2-||------------------|-2-2--2-2-||------------------|----------|
|--------------------|----------|----------||--------------------|----------|----------||-1-1-------1-1------|----------|----------||-2-2--5-4--2-2--5-4-|-5-5--5-4-|-7-7--9-4-||-2-2-------2-2------|-5-5------|-7-7------||--------------------|-3-3------|-5-5------|
|--------------------|----------|------<12>-||--------------------|----------|------<12>-||-1-1-------1-1------|----------|-----------||-2-2--5-4--2-2--5-4-|-5-5--5-4-|-7-7-------||-2-2-------2-2------|-5-5------|-7-7-------||--------------------|-3-3------|-5-5-------|
|-----------|-----------|-----------|-----------|---||-----------|-----------|-----------|-----------|---||-1-x-x-x-1-|-----------|-1-x-x-x-1-|-----------|-1-||-2-x-x-x-2-|-5-x-x-x-7-|-1-x-x-x-2-|-5-x-x-x-7-|-2-||-2-x-x-x-2-|-5-x-x-x-7-|-2-x-x-x-2-|-5-x-x-x-7-|-2-||-----------|-3-x-x-x-5-|-----------|-3-x-x-x-5-|---|
VERSE: [Mi manca..] [Sono uno schiavo..]
|---| |-------|-------||-B-| |-------|-------||-A-| |-1-----|-1-----||-S-| |-2-5-7-|-2-5-7-||-S-| |-2-5-7-|-2-5-7-||---| |---3-5-|---3-5-|
[Scorre dentro me..]
|-----------|-----------|-----------|-----------|---||-----------|-----------|-----------|-----------|---||-1-x-x-x-1-|-----------|-1-x-x-x-1-|-----------|-1-||-2-x-x-x-2-|-5-x-x-x-7-|-1-x-x-x-2-|-5-x-x-x-7-|-2-||-2-x-x-x-2-|-5-x-x-x-7-|-2-x-x-x-2-|-5-x-x-x-7-|-2-||-----------|-3-x-x-x-5-|-----------|-3-x-x-x-5-|---|
[Paralizzato..] [Mi hai intrappolato..]
|---| |-------|-------|---|-17-||-B-| |-------|-------|---|----||-A-| |-1-----|-1-----|-1-|----||-S-| |-2-5-7-|-2-5-7-|-2-|----||-S-| |-2-5-7-|-2-5-7-|-2-|----||---| |---3-5-|---3-5-|---|----|
CHORUS: [Vivo in un incubo..]
|-------------|---------------||-------------|---------------||-1-1--1-1--1-|---------------||-2-2--2-2--2-|-5-5--5-7--7-7-||-2-2--2-2--2-|-5-5--5-7--7-7-||-------------|-3-3--3s5--5-5-| x4
INTRO:
|-----------|-----------|-----------|-----------||-----------|-----------|-----------|-----------||-1-x-x-x-1-|-----------|-1-x-x-x-1-|-----------||-2-x-x-x-2-|-5-x-x-x-7-|-1-x-x-x-2-|-5-x-x-x-7-||-2-x-x-x-2-|-5-x-x-x-7-|-2-x-x-x-2-|-5-x-x-x-7-||-----------|-3-x-x-x-5-|-----------|-3-x-x-x-5-|
INTERLUDE: [Sento ke..]
|--------------|--------------------||--------------|--------------------||-1-1--1-1--1-1|--------------------||-2-2--2-2--2-2|-5-5--5-7--7-7--7-7-||-2-2--2-2--2-2|-5-5--5-7--7-7--7-7-||--------------|-3-3--3s5--5-5--5-5-| x4
[Vattene..] [Via da quž..]
|-----------------------| |------------------------| |---||-----------------------| |------------------------| |---||-1-1-1-1--1-1-1-1--1-1-| |------------------------| |-1-||-2-2-2-2--2-2-2-2--2-2-| |-5-5-5-5--5-7--7-7--7-7-| |-2-||-2-2-2-2--2-2-2-2--2-2-| |-5-5-5-5--5-7--7-7--7-7-| |-2-||-----------------------| |-3-3-3-3--3s5--5-5--5-5-| x2 |---|
CHORUS: [Vivo in un incubo..]
|---------|---------------||---------|---------------||-1-1-1-1-|---------------||-2-2-2-2-|-5-5--5-7--7-7-||-2-2-2-2-|-5-5--5-7--7-7-||---------|-3-3--3s5--5-5-| x1
|-------------|---------------||-------------|---------------||-1-1--1-1--1-|---------------||-2-2--2-2--2-|-5-5--5-7--7-7-||-2-2--2-2--2-|-5-5--5-7--7-7-||-------------|-3-3--3s5--5-5-| x3
END:
|---------------||---------------||-1-1--1-1--1-1-||-2-2--2-2--2-2-||-2-2--2-2--2-2-||---------------|
Baci - kia - se ve serve qlks -> chiara.azzini@hotmail.it - ROCK ON!
Tap to rate this tab
 
# A B C D E F G H I J K L M N O P Q R S T U V W X Y Z