Finntroll - Eliytres tab

FINNTROLL-Eliytres
Nattfodd-2004
Copyright Spinefarm Records
tabbed by general maxx
version 1.0 April 2005

All corrections are welcome.

 " - tremolo
 / - slide down
 \ - slide up
 . - palm mute
 ~ - long sound
 x - rest
 p - pull off
 h - hammer on
 tr - trill
 () - ghost note, sustained note
 * - artificial harmonics
 b - bend

 Tuning from low to high: D G C F A D

================================

Intro (bass + keyboard)|---------||---------||---2---2-||-0---0---|
|
|---------| Several times|---------||-4-4-4-4-||-2-2-2-2-||---------||---------|
Then comes this keyboard line|------------------------------------||------------------------------------||-/9~--8-9---------------------------||----------9~~-----------------------||------------------/10~--9-10-7~-----||------------------------------------|
Then guitar & keyboard intro|-----------------------------||-8-10-11-8-10-11-8-10-11-8---||---------------------------9-||-----------------------------||-----------------------------||-----------------------------|
|
|-----------------------------||-----------------------------||-----------------------------||-5--7--9-5--7--9-5--7--9-5---||-5--7--9-5--7--9-5--7--9-5-2-||-3--5--7-3--5--7-3--5--7-3-0-|
Riff 1 (guitar + keyboard)|-----------------------------------------------------------------------------||-----------------------------------------------------------------------------||-----------------------------------------------------------------------------||------------------------------------------------------------------------8----||-2---------2---------2---------5---7---9-2---------2---------2----------6--9-||-0-000000--0-000000--0-000000--3---5---7-0-000000--0-000000--0-000000------7-|
| ...... ...... ...... ...... ...... ......|-----------------------------------------------------------------------------||---8---------8---------8-------8--10--11---8---------8---------8-------------||-9---9p7-8-9---9p7-8-9---9p7-8-----------9---9p7-8-9---9p7-8-9---9p7-9--8----||---------------------------------------------------------------------------9-||-----------------------------------------------------------------------------||-----------------------------------------------------------------------------|
Riff 2a (guitar + keyboard)|-------------------------------------------------------------------------||-------------------------------------------------------------------------||-------------------------------------------------------------------------||-------------------4--------4--------------------------4--------4--------||-2--------2--------2-222222-2-222222-2--------2--------2-222222-2-222222-||-0-000000-0-000000---......---......-0-000000-0-000000---......---......-|
...... ...... ...... ......|------------------------------------------------------------------------||------------------------------------------------------------------------||-----------------------------------------------------------------/9--8--||-------------------7--------7--------------------------7----------------||-5--------5--------5-555555-5-555555-5--------5--------5-555555--/7--6--||-3-333333-3-333333---......---......-3-333333-3-333333---......---------| ...... ...... ...... ......
Riff 2b (guitar + keyboard)|------------------------------------------------------------------------||------------------------------------------------------------------------||------------------------------------------------------------------------||-------------------4--------4--------------------------4--------4-------||-2--------2--------2-222222-2-222222-2--------2--------2-222222-2-222-2-||-0-000000-0-000000---......---......-0-000000-0-000000---......---...-.-|
| ...... ...... ...... ......|------------------------------------------------------------------------||------------------------------------------------------------------------||------------------------------------------------------------------------||------------------------------------------------------------------------||-7~~~--------------6~~~--------------7~-------10~------9~~~-------------||------------------------------------------------------------------------|
|------------------------------------------------------------------------||------------------------------------------------------------------------||-----------------------------------------------------------------/9--8--||-------------------7--------7--------------------------7----------------||-5--------5--------5-555555-5-555555-5--------5--------5-555555--/7--6--||-3-333333-3-333333---......---......-3-333333-3-333333---......---------|
| ...... ...... ...... ......|------------------------------------------------------------------------||------------------------------------------------------------------------||------------------------------------------------------------------------||-5~~~--------------4~~~--------------5~-------9~-------7~~~-------------||------------------------------------------------------------------------||------------------------------------------------------------------------|
Fill 1 (guitar + keyboard)|-------------------------------------------------------------------||-------------------------------------------------------------------||-------------------------------------------------------------------||-------------------------------------------------------------------||-2--------2--------2--------2--------2--------2--------5--7--9-5-2-||-0-000000-0-000000-0-000000-0-000000-0-000000-0-000000-3--5--7-3-0-|
|
|-------------------------------------------------------------------||-------------------------------------------------------8-10-11-8---||-/9~------8---9--------------------------------------------------9-||------------------9~~----------------------------------------------||------------------------------------/10~----9--10--7~--------------||-------------------------------------------------------------------|
Riff 3 (guitar + keyboard) x1|-----------------------------------------------------------------||-----------------------------------------------------------------||-----------------------------------------------------------------||-----99995555-------------------------44445555-------------4-----||-7777--------7777222244442222-----7777--------777722224444-2--4--||-----------------------------2222-----------------------------2--|
|
|-----------------------------------------------------------------||-----------------------------------------------------------------||-----------------------------------------------------------------||-----4~--5~---------------------------4~--5~---------------------||-7~----------7~------4~--6~-------7~----------7~------4~--6~~----||-----------------7~----------7~-------------------7~-------------|
x2|----------------------------------||----------------------------------||-----77774444---------------------||-5555--------555577774444----4444-||-------------------------5555-----||----------------------------------|
|
|----------------------------------||----------------------------------||----------------------------------||-5~--7~--9~--5~-------------------||-----------------5~--7~--9~--5~---||----------------------------------|
Riff 4a (guitar + keyboard)|----------------------------------------------||-------------------------------8~---7~--------||--------------7--------------------------7~---||-5------------7-----------2----5~---4~--------||-5------------5-----------2--------------5~---||-3------------------------0-------------------|
|
|-------------------------------7~---5~--------||-8~~---7~-8~-10~~---8~-7~-8~---8~---7~---7~---||--------------------------9~-------------7~---||----------------------------------------------||----------------------------------------------||----------------------------------------------|
|----------------------------------------||----------------------------------------||--------------7-----------9---8------9--||-5------------7-----------9---9------9--||-5------------5-----------7---6------7--||-3--------------------------------------|
|
|-7~~----------5~~-----------------------||-8~~---10~-8~-7~~---8~-7~-8~--7~--------||--------------------------9~--8~-8---9~-||------------------------------9~---9----||----------------------------------------||----------------------------------------|
Fill 2(guitar only)x3 x1|--------------------|-----------------------||------8------8----7-|------8----------11----||------9------9----8-|----9---9-----12----12-||------9------9----8-|-/9-------/12----------||------7------7----6-|-----------------------||-0000---0000---00---|-----------------------|
|
|--------------------|-----------------------||--------------------|-----------------------||--------------------|-----------------------||--------------------|-----------------------||--------------------|-----------------------||--------------------|-----------------------|
x3 x1|--------------------|------------------||------8------8----7-|------8-------7---||------9------9----8-|----9---9---8---8-||------9------9----8-|-/9-------8-------||------7------7----6-|------------------||-0000---0000---00---|------------------|
|
|--------------------|------------------||--------------------|------8-------7---||------9------9----8-|----9---9---8---8-||------9------9----8-|-/9-------8-------||------7------7----6-|------------------||--------------------|------------------|
Riff 5(guitar only)x3 x1|--------------------|-----------------------||------8------8----7-|------8----------11----||------9------9----8-|----9---9-----12----12-||------9------9----8-|-/9-------/12----------||------7------7----6-|-----------------------||-0000---0000---00---|-----------------------|
x3 x1|--------------------|------------------||------8------8----7-|------8-------7---||------9------9----8-|----9---9---8---8-||------9------9----8-|-/9-------8-------||------7------7----6-|------------------||-0000---0000---00---|------------------|
Riff 6 (guitar + keyboard)|--------------------------------------------------||--------------------------------------------------||-------------4-----------------------4------------||-2-----------4-----------2-----------4------------||-2-----------2-----------2-----------2------------||-0-----------------------0------------------------|
|
|--------------------------------------------------||--------------------------------------------------||--------------------------------------------------||----4~-5~-------------------4~-5~-----------------||-7~-------7~----4~-6~----7~-------7~----4~-6~~----||-------------7~-------7~-------------7~-----------|
|--------------------------------------------------||--------------------------------------------------||-------------7-----------------------7------------||-5-----------7-----------5-----------7------------||-5-----------5-----------5-----------5-----7--6---||-3-----------------------3------------------------|
|
|--------------------------------------------------||--------------------------------------------------||--------------------------------------------------||-5~-7~-9~-5~-------------5~-7~-9~-5~--------------||-------------5~-7~-9~-5~-------------5~-7~-9~~----||--------------------------------------------------|
Riff 7 (guitar + keyboard)|----------------------------------|----------------------------------||----------------------------------|----------------------------------||----------------------------------|-----77774444---------------------||-2222----5555222244441111----1111-|-5555--------555577774444----4444-||-----2222----------------2222-----|-------------------------5555-----||----------------------------------|----------------------------------|
|
|----------------------------------|----------------------------------||----------------------------------|----------------------------------||----------------------------------|----------------------------------||-----4~--5~-----------------------|-5~--7~--9~--5~-------------------||-7~----------7~------4~--6~-------|-----------------5~--7~--9~--5~---||-----------------7~----------7~---|----------------------------------|
Additional keyboard line for Riff 7|------------------------------------||-888~~---777~~---888-8-7-7---7~~----||-999~~---888~~---999-----8-9-8~~----||---------999~~-----------9---9~~----||------------------------------------||------------------------------------|
|--------------------------------------------------||-121212~~---101010~~---121212-12-10-10----10~~----||-121212~~---111111~~---121212-------11-12-11~~----||------------121212~~----------------12----12~~----||--------------------------------------------------||--------------------------------------------------|
Riff 4b (guitar + keyboard)|----------------------------------------------||-------------------------------8~---7~--------||--------------7--------------------------7~---||-5------------7-----------2----5~---4~--------||-5------------5-----------2--------------5~---||-3------------------------0-------------------|
|
|-------------------------------7~--575~-------||-8~~---7~-8~-10~~---8~-7~-8~---8~--787~--7~---||--------------------------9~-------------7~---||----------------------------------------------||----------------------------------------------||----------------------------------------------|
|----------------------------------------||----------------------------------------||--------------7-----------9---8------9--||-5------------7-----------9---9------9--||-5------------5-----------7---6------7--||-3--------------------------------------|
|
|-7~~----------5~~-----------------------||-8~~---10~-8~-7~~---8~-7~-8~--7~--------||--------------------------9~--8~-8---9~-||------------------------------9~---9----||----------------------------------------||----------------------------------------|
Additional guitar line under Riff 4b|----------------------------------------------------------------------||-/8~--7-8-10~--8-7-----/8~--7~------/12~--10-8-10~--8-7---------------||-------------------9~-----------7~----------------------9~--8~--8---9-||------------------------------------------------------------------8---||----------------------------------------------------------------------||----------------------------------------------------------------------|
Riff 8(guitar only)x3 1st ending 2nd ending|--------------------|-------------------|-----------------||------8------8----7-|---8--------11---7-|---8-------7-----||------9------9----8-|---9---9----12---8-|---9---9---8---8-||------9------9----8-|---9---9----12---8-|---9---9---8---8-||------7------7----6-|-7-7---9-10-10-6-6-|-7-7---9-6-6---8-||-0000---0000---00---|-----7-7-----------|-----7-7-----6-6-|
Also must be played Riff 6 without keyboard Then Riff 7 without keyboard
Riff 9a (guitar only)|---------------------------------||----------------------8-10-7-----||-5-------------4-----------------||-5------2------4------5--7-4-----||-3------2------2-------------5-3-||--------0------------------------|
Riff 9b (guitars 1&2)|------------------------------------------------------||-------------------------------------------8-10-7-----||------------------------------------------------------||-5------5--------------------4------4------5--7-4-----||-3-3333-3-3333-2------2------2-2222-2-2222--------5-3-||---------------0-0000-0-0000--------------------------|
|
|----------------------------7~------------------------||------------------7--8--10---------7--10---8-10-7-----||-5--7--9-------9----------------------------------9-7-||----------9~------------------------------------------||------------------------------------------------------||------------------------------------------------------|
|---------------------------------------------------------||---------------------------------------------------------||---------------------------------------------------------||-5------5--------------------4------4------4------4------||-3-3333-3-3333-2------2------2-2222-2-2222-2-2222-2-2222-||---------------0-0000-0-0000-----------------------------|
|
|----------------------------7~-------------7~~-----------||------------------7--8--10---------7--10-----------------||-5--7--9-------9-----------------------------------------||----------9~---------------------------------------------||---------------------------------------------------------||---------------------------------------------------------| * - keyboard lines under Riffs 9a & 9b are to complex, maybe i'll tab them later ;)
Ending riff (guitar + keyboard)|----------------------------------------------------------------------||----------------------------------------------------------------------||----------------------------------------------------------------------||-----------------------------------------------------------------5--4-||-2--------2--------2--------2--------2--------2--------2---------5--5-||-0-000000-0-000000-0-000000-0-000000-0-000000-0-000000-0-000000--3--2-|
|
|----------------------------------------------------------------------||----------------------------------------------------------------------||-/9~------8---9-------------------------------------------------12-11-||------------------9~~-------------------------------------------12-12-||------------------------------------/10~----9--10--7~-----------------||----------------------------------------------------------------------|
|-------------------------------------------------------||-------------------------------------------------------||-------------------------------------------------------||-------------------------------------------------------||-2--------2--------2--------2--------2--------2--------||-0-000000-0-000000-0-000000-0-000000-0-000000-0-000000-|
|
|-------------------------------------------------------||-------------------------------------------------------||-/9~------8---9----------------------------------------||------------------9~~----------------------------------||------------------------------------/10~----9--10--7~--||-------------------------------------------------------|
|-------------------------------||-------------------------------||-------------------------------||-5--7--8-5--7--8-5--7--8-5-1-2-||-5--7--8-5--7--8-5--7--8-5-2-2-||-3--5--6-3--5--6-3--5--6-3-0-0-|
|
|-------------------------------||-8-10-11-8-10-11-8-10-11-8-----||---------------------------7-9-||-------------------------------||-------------------------------||-------------------------------|
Tap to rate this tab
 
# A B C D E F G H I J K L M N O P Q R S T U V W X Y Z