Fires Of Waco - Risk And Reason tab

Risk And Reason. Fires Of Waco. In The Wake Of...

Standard Tuning.

Figure strum patterns yourself.


--4-0-0-2-0-0-2-0--4-0-0-2-0-0-2-0--| x3------------------------------------|------------------------------------|------------------------------------|------------------------------------|------------------------------------|
--4-0-4-0-4/5-0-4-0-4-0-0-4/5-5-5--|-----------------------------------|-----------------------------------|-----------------------------------|-----------------------------------|-----------------------------------|
------------------------------------------------|------------------------------------------------|--16--------20---18--13--16-13--------9------8--|------------------------------------------------|--14--------18---16--11--14-11--------7------7--|------------------------------------------------|
---------------------------------------------------|---------------------------------------------------|--16--------20---18--13--16-13-------11----9--8/9--|---------------------------------------------------|--14--------18---16--11--14-11--------9----7--6/7--|---------------------------------------------------|
--------------------------------|--------------------------------|--16--------20---18--13--16-13--|--------------------------------|--14--------18---16--11--14-11--|--------------------------------|
-----x-----x-------x------|-----x-----x-------x------|--9--x--8--x--8/9--x------|-----x-----x-------x---9--|--7--x--6--x--6/7--x------|-----x-----x-------x---7--|
-----------------|-----------------|--9-----8-8-8/9--|-----------------|--7-----6-6-6/7--|-----------------|
--4-0-0-2-0-0-2-0--4-0-0-2-0-0-2-0--| x3------------------------------------|------------------------------------|------------------------------------|------------------------------------|------------------------------------|
--4-0-4-0-4/5-0-4-0-4-0-0-4/5-5-5--|-----------------------------------|-----------------------------------|-----------------------------------|-----------------------------------|-----------------------------------|
------------------------------------------------|------------------------------------------------|--16--------20---18--13--16-13--------9------8--|------------------------------------------------|--14--------18---16--11--14-11--------7------7--|------------------------------------------------|
---------------------------------------------------|---------------------------------------------------|--16--------20---18--13--16-13-------11----9--8/9--|---------------------------------------------------|--14--------18---16--11--14-11--------9----7--6/7--|---------------------------------------------------|
--------------------------------|--------------------------------|--16--------20---18--13--16-13--|--------------------------------|--14--------18---16--11--14-11--|--------------------------------|
-----------------------------------------|-----------------------------------------|--9-------9-------9--------9-9-11-8-9----|------7-----6-9-----9-11-----------------|----9------------------------------------|-----------------------------------------|
---------------------------------------------------------|---------------------------------------------------------|--9-----------9-----------9----------------9-9-11-8-9-9--|------7---7-----6-9-6-9-6---9-11-9-11-9-11---------------|----9---9---9--------------------------------------------|---------------------------------------------------------|
---------------|---------------|---------------|--4-4-2---7-7--|--4-4-2---7-7--|--2-2-0---5-5--|
http://www.facebook.com/pages/Fires-of-Waco/163320443687567
Tap to rate this tab
 
# A B C D E F G H I J K L M N O P Q R S T U V W X Y Z