Firewind - Embrace The Sun tab

This Song is in Drop D tuning the 1st string down a whole step

|----------------------------------------------------||--15-17-1818--11-13-1515--15-17-18----17br-15-------||-----------------------------------17---------17-14-||----------------------------------------------------||----------------------------------------------------||----------------------------------------------------|
|----------------------------------|rpt|----------------------------------||----------------------------------||-5555555555-----------------------||-5555555555-----6-5-3-----------4-||-5555555555--00-------10-8--5-7---| |___mute__| Etc
(about 6 strums)|--------------------|--------------------||--------------------|--------------------||--------------------|--------------------||-5----8-----3-----7-|-5-----3--77-77-8-7-||-5----8-----3-----7-|-5-----3--77-77-8-7-||-5----8-----3-----7-|-5-----3--77-77-8-7-||_______strumming____|strumming|play exactly
Embrace The Sun....
1st time,3rd time|-----------------------------------------||-----------------------------------------||-----------------------------------------||-777777--101010101010--888888--555-7p5p0-||-555555--8-8-8-8-8-8---888888--555-7p5p0-||-----------------------888888--555-7p5p0-|
2nd time,4th time|--------------------------------------||--------------------------------------||--------------------------------------||--777777-101010101010-22222222222-----||--555555-8-8-8-8-8-8--00000000000-----||----------------------xxxxxxxxxxx-----|*notecan be played-2 -14-0 -12-x -
|-----------------------------------------------||-----------------------------------------------||-----------------------------------------------||-----------------------------------------------||-121012-12-10-88-78-8-10-11-121012-12-10-8-7-8-||-121012-12-10-88-78-8-10-11-121012-12-10-8-7-8-| o o o o o o o o o
|----------------------------------|rpt|----------------------------------||----------------------------------||-5555555555-----------------------||-5555555555-----6-5-3-----------4-||-5555555555--00-------10-8--5-7---| |___mute__| Etc
(about 6 strums)|--------------------|--------------------||--------------------|--------------------||--------------------|--------------------||-5----8-----3-----7-|-5-----3--77-77-8-7-||-5----8-----3-----7-|-5-----3--77-77-8-7-||-5----8-----3-----7-|-5-----3--77-77-8-7-||_______strumming____|strumming|play exactly
Embrace The Sun....
1st time,3rd time|-----------------------------------------||-----------------------------------------||-----------------------------------------||-777777--101010101010--888888--555-7p5p0-||-555555--8-8-8-8-8-8---888888--555-7p5p0-||-----------------------888888--555-7p5p0-|
2nd time,4th time|--------------------------------------||--------------------------------------||--------------------------------------||--777777-101010101010-22222222222-----||--555555-8-8-8-8-8-8--00000000000-----||----------------------xxxxxxxxxxx-----|
|-----------------------------------------------||-----------------------------------------------||-----------------------------------------------||-----------------------------------------------||-121012-12-10-88-78-8-10-11-121012-12-10-8-7-8-||-121012-12-10-88-78-8-10-11-121012-12-10-8-7-8-| o o o o o o o o o
Pre-Solo
|-101013131212-10101010-131312121010-----131312121010------131312121010-||------------------------------------1111--------------1313-------------||-----------------------------------------------------------------------||-----------------------------------------------------------------------||-----------------------------------------------------------------------||-----------------------------------------------------------------------||-----------------------------------------------------------------------|Rpt~
Solo
|----------------------------------15--14--12-----||--------------------------------12--12--12--12---||-----12-15brbr----12-17br17----------------------||---12-----------12---------16--------------------||-14-----------14---------------------------------||-------------------------------------------------||-------------------------------------------------|
Trill|----------------------------------------------------------||-17p15p13-------------------------------------------------||---------16p14p12-14p12p11121112---11---------------------||---------------------------------14--14-12---12-------14b-||-------------------------------------------14--151412-----||----------------------------------------------------------||----------------------------------------------------------|
|---------------------------------------------------||------12-15-12----12-17-12----12-15-12----12-17-12-||---14b---------14b---------14b---------14b---------||---------------------------------------------------||-/-------------------------------------------------||-/-------------------------------------------------||-/-------------------------------------------------|
|-------------------------------------------------------||-17p15p12-17p15p12-17p15p13-17p15p13-17p15p13-17p15p13-||-------------------------------------------------------||-------------------------------------------------------||-------------------------------------------------------||-------------------------------------------------------||-------------------------------------------------------|
|----------------------------------------||-15-13-12--12---------------------------||---------14--14-12--12------------------||------------------14--14-12--12---------||---------------------------14--1413-12~-||----------------------------------------||----------------------------------------|End solo
Face Your Life....
|---------------------------------||---------------------------------||---------------------------------||-7-----9-----10------12----------||-7-----9-----10------12----------||-7-----9-----10------12----------|
You Won't Get Burned..... 1st,3rd 2nd,4th|----------------------------------|-------------------------||----------------------------------|-------------------------||----------------------------------|-------------------------||----------------------------------|-------------------------||--------------5-------------------|---------------4---------||-2-----5------5------7------7-5-0-|--2------5-----4---------||-2-----5------3------7------7-5-0-|--2------5-----2---------||-2-----5-------------7------7-5-0-|--2------5---------------| |__strumming__strumming____| |________strumming_____|
|--------------------------------------------|---------||--------------------------------------------|---------||--------------------------------------------|---------||-----------------------------------44444444-|---------||-222222---555555--222222---555555--44444444-|-2-0-222-||-222222---555555--222222---555555--22222222-|-2-0-222-||-222222---555555--222222---555555-----------|-2-0-222-|
End Enjoy Drew-X
Tap to rate this tab
 
# A B C D E F G H I J K L M N O P Q R S T U V W X Y Z