Firewind - Ready To Strike tab version 3

Tuning: D,G,C,F,A,D

INTRO

-------------------------------------------|-------------------------------------------|-------------------------------------5-7---|7--------7--------7--------7---------5-7---|0--0-0-0-0--0-0-0-0--0-0-0-0--0-0-0--------|-------------------------------------------|
-------------------------------------------|-------------------------------------------|-------------------------------------7-5---|7--------7--------7--------7---------7-5---|0--0-0-0-0--0-0-0-0--0-0-0-0--0-0-0--------|-------------------------------------------|
-------------------------------------------|-------------------------------------------|-------------------------------------5-7---|7--------7--------7--------7---------5-7---|0--0-0-0-0--0-0-0-0--0-0-0-0--0-0-0--------|-------------------------------------------|
-------------------------------------------|-------------------------------------------|7-7-7---5-5-5---7-7-7---5-5-5--------------|7-7-7---5-5-5---7-7-7---5-5-5-----5---6----|5-5-5---3-3-3---5-5-5---3-3-3-----5---6----|--------------------------------0-3-0-4----|
-------------------------------------------|-------------------------------------------|-------------------------------------5-7---|7--------7--------7--------7---------5-7---|0--0-0-0-0--0-0-0-0--0-0-0-0--0-0-0--------|-------------------------------------------|
-------------------------------------------|-------------------------------------------|-------------------------------------7-5---|7--------7--------7--------7---------7-5---|0--0-0-0-0--0-0-0-0--0-0-0-0--0-0-0--------|-------------------------------------------|
-------------------------------------------|-------------------------------------------|-------------------------------------5-7---|7--------7--------7--------7---------5-7---|0--0-0-0-0--0-0-0-0--0-0-0-0--0-0-0--------|-------------------------------------------|
-------------------------------------------|-------------------------------------------|7-7-7---5-5-5---7-7-7---5-5-5--------------|7-7-7---5-5-5---7-7-7---5-5-5-----5---6----|5-5-5---3-3-3---5-5-5---3-3-3-----5---6----|--------------------------------0-3-0-4----|
INTRO SOLO
---------------------------------17H19P18P15----------|-------17-17-17-17------------/17-----------18-P17----|-17-19----19B19B19B-17-19-21--------------------------|------------------------------------------------------|------------------------------------------------------|------------------------------------------------------|
-15H17P15-----------------------------------------------|---------18P17P15---------13H15B--15--------------------|------------------17P15P14------------------------------|--------------------------------------------------------|--------------------------------------------------------|--------------------------------------------------------|
VERSE 1
-------------------------------------------|-------------------------------------------|2--------2--------2--------2---------5-7---|2--------2--------2--------2---------5-7---|0--0-0-0-0--0-0-0-0--0-0-0-0--0-0-0--------|-------------------------------------------|
-------------------------------------------|-------------------------------------------|-------------------------------------------|3---------3---------3-------3-----3---3----|3---------3---------3-------3-----3---3----|1---1-1-1-1---1-1-1-1---1-1-1---1-1-1-1----|
-------------------------------------------|-------------------------------------------|------------------------------2--9\7---7-5-|5---------5---------5---------2--9\7---7-5-|5---------5---------5---------0-------0-0--|3---3-3-3-3---3-3-3-3---3-3-3--------------|
BRIDGE
-------------------------------------------|------5---------5-6---------5--------5-6---|--------7-----------7---------7------------|----7---------7-----------7--------7-------|--5---------5-----------5--------5---------|-------------------------------------------|
INTRO RIFF
-------------------------------------------|-------------------------------------------|-------------------------------------5-7---|7--------7--------7--------7---------5-7---|0--0-0-0-0--0-0-0-0--0-0-0-0--0-0-0--------|-------------------------------------------|
-------------------------------------------|-------------------------------------------|-------------------------------------7-5---|7--------7--------7--------7---------7-5---|0--0-0-0-0--0-0-0-0--0-0-0-0--0-0-0--------|-------------------------------------------|
-------------------------------------------|-------------------------------------------|-------------------------------------5-7---|7--------7--------7--------7---------5-7---|0--0-0-0-0--0-0-0-0--0-0-0-0--0-0-0--------|-------------------------------------------|
-------------------------------------------|-------------------------------------------|7-7-7---5-5-5---7-7-7---5-5-5--------------|7-7-7---5-5-5---7-7-7---5-5-5-----5---6----|5-5-5---3-3-3---5-5-5---3-3-3-----5---6----|--------------------------------0-3-0-4----|
INTRO SOLO AGAIN (SLIGHT VARIATION AT START)
-------------------------------------------|-------------------------------------------|-------------------------------------5-7---|7--------7--------7--------7---------5-7---|0--0-0-0-0--0-0-0-0--0-0-0-0--0-0-0--------|-------------------------------------------|
-------------------------------------------|-------------------------------------------|-------------------------------------7-5---|7--------7--------7--------7---------7-5---|0--0-0-0-0--0-0-0-0--0-0-0-0--0-0-0--------|-------------------------------------------|
-------------------------------------------|-------------------------------------------|-------------------------------------5-7---|7--------7--------7--------7---------5-7---|0--0-0-0-0--0-0-0-0--0-0-0-0--0-0-0--------|-------------------------------------------|
-------------------------------------------|-------------------------------------------|7-7-7---5-5-5---7-7-7---5-5-5--------------|7-7-7---5-5-5---7-7-7---5-5-5-----5---6----|5-5-5---3-3-3---5-5-5---3-3-3-----5---6----|--------------------------------0-3-0-4----|
-------------------------------------------|-------------------------------------------|-------------------------------------5-7---|7--------7--------7--------7---------5-7---|0--0-0-0-0--0-0-0-0--0-0-0-0--0-0-0--------|-------------------------------------------|
-------------------------------------------|-------------------------------------------|7-7-7---5-5-5---7-7-7---5-5-5--------------|7-7-7---5-5-5---7-7-7---5-5-5-----5---6----|5-5-5---3-3-3---5-5-5---3-3-3-----5---6----|--------------------------------0-3-0-4----|
VERSE
-------------------------------------------|-------------------------------------------|2--------2--------2--------2---------5-7---|2--------2--------2--------2---------5-7---|0--0-0-0-0--0-0-0-0--0-0-0-0--0-0-0--------|-------------------------------------------|
-------------------------------------------|-------------------------------------------|-------------------------------------------|3---------3---------3-------3-----3---3----|3---------3---------3-------3-----3---3----|1---1-1-1-1---1-1-1-1---1-1-1---1-1-1-1----|
-------------------------------------------|-------------------------------------------|------------------------------2--9\7---7-5-|5---------5---------5---------2--9\7---7-5-|5---------5---------5---------0-------0-0--|3---3-3-3-3---3-3-3-3---3-3-3--------------|-------------------------------------------|-------------------------------------------|2--------2--------2--------2---------5-7---|2--------2--------2--------2---------5-7---|0--0-0-0-0--0-0-0-0--0-0-0-0--0-0-0--------|-------------------------------------------|
-------------------------------------------|-------------------------------------------|-------------------------------------------|3---------3---------3-------3-----3---3----|3---------3---------3-------3-----3---3----|1---1-1-1-1---1-1-1-1---1-1-1---1-1-1-1----|
-------------------------------------------|-------------------------------------------|------------------------------2--9\7---7-5-|5---------5---------5---------2--9\7---7-5-|5---------5---------5---------0-------0-0--|3---3-3-3-3---3-3-3-3---3-3-3--------------|
BRIDGE
-------------------------------------------|------5---------5-6---------5--------5-6---|--------7-----------7---------7------------|----7---------7-----------7--------7-------|--5---------5-----------5--------5---------|-------------------------------------------|
INTRO RIFF
-------------------------------------------|-------------------------------------------|-------------------------------------5-7---|7--------7--------7--------7---------5-7---|0--0-0-0-0--0-0-0-0--0-0-0-0--0-0-0--------|-------------------------------------------|
-------------------------------------------|-------------------------------------------|-------------------------------------7-5---|7--------7--------7--------7---------7-5---|0--0-0-0-0--0-0-0-0--0-0-0-0--0-0-0--------|-------------------------------------------|
-------------------------------------------|-------------------------------------------|-------------------------------------5-7---|7--------7--------7--------7---------5-7---|0--0-0-0-0--0-0-0-0--0-0-0-0--0-0-0--------|-------------------------------------------|
-------------------------------------------|-------------------------------------------|7-7-7---5-5-5---7-7-7---5-5-5--------------|7-7-7---5-5-5---7-7-7---5-5-5-----5---6----|5-5-5---3-3-3---5-5-5---3-3-3-----5---6----|--------------------------------0-3-0-4----|
INTERLUDE
-------------------------------------------|-------------------------------------------|-2-----------------------------------------|-2-------- REST ----------------------|-0-----------------------------------------|-------------------------------------------|
SOLO
-------------------------------------------|-15-17--17-18-15-15-17-13-15-12-13-10-12-8-|-------------------------------------------|-------------------------------------------|-------------------------------------------|-------------------------------------------|
-------------------------------------------|-12-10\5---/17-----------------------------|-------------------------------------------|-------------------------------------------|-------------------------------------------|-------------------------------------------|
--------------17---17h19p17-17-19-19b-19b-19-17-19--|-17-20-19--20---------------------------------------|----------------------------------------------------|----------------------------------------------------|----------------------------------------------------|----------------------------------------------------|
-17-19-20b--19-20-22-17---17-19-19---|-------------------------------------|-------------------------------------|-------------------------------------|-------------------------------------|-------------------------------------|
-20p19p17h19-20p19p17h19-20p19p17h19-20p19p17h19-|-------------------------------------------------|-------------------------------------------------|-------------------------------------------------|-------------------------------------------------|-------------------------------------------------|
-20-22p20p19h20-22p20p19h20-22p20p19h20-22p20p19h20/22B--|---------------------------------------------------------|---------------------------------------------------------|---------------------------------------------------------|---------------------------------------------------------|---------------------------------------------------------|
-22H24P22P20-22------------------------------------|-------------------17-17----17-17-17----17---------|-------------------19B19B---19B19B19B 19--19P17H19-|---------------------------------------------------|---------------------------------------------------|---------------------------------------------------|
REST OF SOLO TO COME.... (IF ANYONE CAN GET IT FEEL FREE TO LET ME KNOW WHAT IT IS) BRIDGE
-------------------------------------------|------5---------5-6---------5--------5-6---|--------7-----------7---------7------------|----7---------7-----------7--------7-------|--5---------5-----------5--------5---------|-------------------------------------------|
INTRO RIFF X3
-------------------------------------------|-------------------------------------------|-------------------------------------5-7---|7--------7--------7--------7---------5-7---|0--0-0-0-0--0-0-0-0--0-0-0-0--0-0-0--------|-------------------------------------------|
-------------------------------------------|-------------------------------------------|-------------------------------------7-5---|7--------7--------7--------7---------7-5---|0--0-0-0-0--0-0-0-0--0-0-0-0--0-0-0--------|-------------------------------------------|
-------------------------------------------|-------------------------------------------|-------------------------------------5-7---|7--------7--------7--------7---------5-7---|0--0-0-0-0--0-0-0-0--0-0-0-0--0-0-0--------|-------------------------------------------|
-------------------------------------------|-------------------------------------------|7-7-7---5-5-5---7-7-7---5-5-5--------------|7-7-7---5-5-5---7-7-7---5-5-5-----5---6----|5-5-5---3-3-3---5-5-5---3-3-3-----5---6----|--------------------------------0-3-0-4----|
LAST NOTE --- --- -2- -2- -0- ---
Tap to rate this tab
 
# A B C D E F G H I J K L M N O P Q R S T U V W X Y Z