Five Finger Death Punch - Bulletproof tab version 3


   This is an awsome kick ass song that's fun to play to and not that hard
  . This all sounds right to me so learn and enjoy and if there are any questions 
feel free to comment.

   Band: Five Finger Death Punch
   Album: War is the Answer
   Song: Bulletproof
   Tuning: B E A D F# B

   -----------------------------------------------------------------------
   ---------------------------Bulletproof---------------------------------
   -----------------------------------------------------------------------

Intro (Both Guitars) |------------------------------------------------------| |------------------------------------------------------| |------------------------------------------------------| |--------------------------------------------5h7p5-----| |---------7-5-7-------7-5-7-------7-5-7-55-7------7-5--| |-0-0-0-0------0-0-0-0-----0-0-0-0---------------------|
. . . . . . . . . . . . |------------------------------------------------------| |------------------------------------------------------| |------------------------------------------------------| |--------------------------------------------5h7p5-----| |---------7-5-7-------7-5-7-------7-5-7-55-7------7-5--| |-0-0-0-0------0-0-0-0-----0-0-0-0---------------------|
. . . . . . . . . . . . |------------------------------------------------------| |------------------------------------------------------| |------------------------------------------------------| |--------------------------------------------5h7p5-----| |---------7-5-7-------7-5-7-------7-5-7-55-7------7-5--| |-0-0-0-0------0-0-0-0-----0-0-0-0---------------------|
. . . . . . . . . . . . |---------------------------------------|-------------------------| |---------------------------------------|-------------------------| |---------------------------------------|--Snare fill into verse--| |---------------------------------------|-------------------------| |---------7-5-7-------7-5-7-------7-5-7-|-------------------------| |-0-0-0-0------0-0-0-0-----0-0-0-0------|-------------------------| . . . . . . . . . . . . Verse (Both Guitars)
|------------------------------------------------------| |------------------------------------------------------| |------------------------------------------------------| |--------------------------------------------5h7p5-----| |---------7-5-7-------7-5-7-------7-5-7-55-7------7-5--| |-0-0-0-0------0-0-0-0-----0-0-0-0---------------------|
. . . . . . . . . . . . |------------------------------------------------------| |------------------------------------------------------| |------------------------------------------------------| |--------------------------------------------5h7p5-----| |---------7-5-7-------7-5-7-------7-5-7-55-7------7-5--| |-0-0-0-0------0-0-0-0-----0-0-0-0---------------------|
|------------------------------------------------------| |------------------------------------------------------| |------------------------------------------------------| |--------------------------------------------5h7p5-----| |---------7-5-7-------7-5-7-------7-5-7-55-7------7-5--| |-0-0-0-0------0-0-0-0-----0-0-0-0---------------------|
. . . . . . . . . . . . |---------------------------------------|----------------------------| |---------------------------------------|----------------------------| |---------------------------------------|---Snare fill into Bridge---| |---------------------------------------|----------------------------| |---------7-5-7-------7-5-7-------7-5-7-|----------------------------| |-0-0-0-0------0-0-0-0-----0-0-0-0------|----------------------------|
. . . . . . . . . . . . Pre-Chorus or Bridge (Both Guitars) |---------------------------------|-----------------------------| |---------------------------------|-----------------------------| |---------------------------------|-the x's u play--(dead note)-| |---------------------------------|-----------------------------| |-3-2---3-2---3-2---3-2-----------|-----------------------------| |-1-0xx-1-0xx-1-0xx-1-0-0-0-0-000-|-----------------------------|
. . . ... |---------------------------------| |---------------------------------| |---------------------------------| |---------------------------------| |-3-2---3-2---3-2---3-2-----------| |-1-0xx-1-0xx-1-0xx-1-0-0-0-0-000-|
. . . ... |---------------------------------| |---------------------------------| |---------------------------------| |---------------------------------| |-3-2---3-2---3-2---3-2-----------| |-1-0xx-1-0xx-1-0xx-1-0-0-0-0-000-|
. . . ... |---------------------------------| |---------------------------------| |---------------------------------| |---------------------------------| |-3-2---3-2---3-2---3-2-----------| |-1-0xx-1-0xx-1-0xx-1-0-0-0-0-000-|
. . . ... Chorus (Guitar 1) |-----------------------------------------------------| |------8--------------------------------3--5~~~~~~~~--| |--------11~~~~---------------------------------------| |----9-------------------------------5----------------| |-7-------------------------------3-------------------| |-----------------------------------------------------|
|-----------------------------------------------------| |------8--------------------------------3--5~~~~~~~~--| |--------11~~~~---------------------------------------| |----9-------------------------------5----------------| |-7-------------------------------3-------------------| |-----------------------------------------------------|
Chorus (Guitar 2) (Let the chords ring throughout) |-----------------------------------------------------| |-----------------------------------------------------| |---------------------------------5-------------------| |-2-------------------------------5-------------------| |-2-------------------------------3-------------------| |-0------------------------------------------3--2-3---|
|-----------------------------------------------------| |-----------------------------------------------------| |---------------------------------5-------------------| |-2-------------------------------5-------------------| |-2-------------------------------3-------------------| |-0---------------------------------------------------|
Intro (Both Guitars) (Again) |------------------------------------------------------| |------------------------------------------------------| |------------------------------------------------------| |--------------------------------------------5h7p5-----| |---------7-5-7-------7-5-7-------7-5-7-55-7------7-5--| |-0-0-0-0------0-0-0-0-----0-0-0-0---------------------|
. . . . . . . . . . . . |------------------------------------------------------| |------------------------------------------------------| |------------------------------------------------------| |--------------------------------------------5h7p5-----| |---------7-5-7-------7-5-7-------7-5-7-55-7------7-5--| |-0-0-0-0------0-0-0-0-----0-0-0-0---------------------|
. . . . . . . . . . . . |------------------------------------------------------| |------------------------------------------------------| |------------------------------------------------------| |--------------------------------------------5h7p5-----| |---------7-5-7-------7-5-7-------7-5-7-55-7------7-5--| |-0-0-0-0------0-0-0-0-----0-0-0-0---------------------|
. . . . . . . . . . . . |---------------------------------------|-------------------------| |---------------------------------------|-------------------------| |---------------------------------------|--Snare fill into verse--| |---------------------------------------|-------------------------| |---------7-5-7-------7-5-7-------7-5-7-|-------------------------| |-0-0-0-0------0-0-0-0-----0-0-0-0------|-------------------------|
. . . . . . . . . . . . Verse (Both Guitars) (Again) |------------------------------------------------------| |------------------------------------------------------| |------------------------------------------------------| |--------------------------------------------5h7p5-----| |---------7-5-7-------7-5-7-------7-5-7-55-7------7-5--| |-0-0-0-0------0-0-0-0-----0-0-0-0---------------------|
. . . . . . . . . . . . |------------------------------------------------------| |------------------------------------------------------| |------------------------------------------------------| |--------------------------------------------5h7p5-----| |---------7-5-7-------7-5-7-------7-5-7-55-7------7-5--| |-0-0-0-0------0-0-0-0-----0-0-0-0---------------------|
. . . . . . . . . . . . |------------------------------------------------------| |------------------------------------------------------| |------------------------------------------------------| |--------------------------------------------5h7p5-----| |---------7-5-7-------7-5-7-------7-5-7-55-7------7-5--| |-0-0-0-0------0-0-0-0-----0-0-0-0---------------------|
. . . . . . . . . . . . |---------------------------------------|----------------------------| |---------------------------------------|----------------------------| |---------------------------------------|---Snare fill into Bridge---| |---------------------------------------|----------------------------| |---------7-5-7-------7-5-7-------7-5-7-|----------------------------| |-0-0-0-0------0-0-0-0-----0-0-0-0------|----------------------------|
. . . . . . . . . . . . Pre-Chorus or Bridge (Both Guitars) (Again) |---------------------------------|-----------------------------| |---------------------------------|-----------------------------| |---------------------------------|-the x's u play--(dead note)-| |---------------------------------|-----------------------------| |-3-2---3-2---3-2---3-2-----------|-----------------------------| |-1-0xx-1-0xx-1-0xx-1-0-0-0-0-000-|-----------------------------|
. . . ... |---------------------------------| |---------------------------------| |---------------------------------| |---------------------------------| |-3-2---3-2---3-2---3-2-----------| |-1-0xx-1-0xx-1-0xx-1-0-0-0-0-000-|
. . . ... |---------------------------------| |---------------------------------| |---------------------------------| |---------------------------------| |-3-2---3-2---3-2---3-2-----------| |-1-0xx-1-0xx-1-0xx-1-0-0-0-0-000-|
. . . ... |---------------------------------| |---------------------------------| |---------------------------------| |---------------------------------| |-3-2---3-2---3-2---3-2-----------| |-1-0xx-1-0xx-1-0xx-1-0-0-0-0-000-|
. . . ... Chorus (Guitar 1) (Again) |-----------------------------------------------------| |------8--------------------------------3--5~~~~~~~~--| |--------11~~~~---------------------------------------| |----9-------------------------------5----------------| |-7-------------------------------3-------------------| |-----------------------------------------------------|
|-----------------------------------------------------| |------8--------------------------------3--5~~~~~~~~--| |--------11~~~~---------------------------------------| |----9-------------------------------5----------------| |-7-------------------------------3-------------------| |-----------------------------------------------------|
Chorus (Guitar 2) (Let the chords ring throughout) |-----------------------------------------------------| |-----------------------------------------------------| |---------------------------------5-------------------| |-2-------------------------------5-------------------| |-2-------------------------------3-------------------| |-0------------------------------------------3--2-3---|
|-----------------------------------------------------| |-----------------------------------------------------| |---------------------------------5-------------------| |-2-------------------------------5-------------------| |-2-------------------------------3-------------------| |-0---------------------------------------------------|
Solo (Guitar 1) |---------------------------------------------------------------| |---------------------------------------------------------------| |------------14-----------16p14-----------17p14-----------16p14-| |-14-14-14-14--14-14-14-14-----14-14-14-14-----14-14-14-14------| |---------------------------------------------------------------| |---------------------------------------------------------------|
. . . . . . . . . . . . . . . . |---------------------------------------------------------------| |---------------------------------------------------------------| |------------14-----------16------------------------------------| |-14-14-14-14--14-14-14-14--14-14-14-14-19-17-14-14-17-16-14-14-| |---------------------------------------------------------------| |---------------------------------------------------------------|
. . . . . . . . . . . . . . . . . . . . |--------------------------------------------------| |--------------------------------------------------| |------------------------------14-----------16p14--| |-16-17-14-14-17-19-14-14-14-14--14-14-14-14-------| |--------------------------------------------------| |--------------------------------------------------|
. . . . . . . . . . . . . . |---------------------------------------------------------------| |---------------------------------------------------------------| |------------17-16-----19-17-17-16-----------14-----------16p14-| |-14-14-14-14-----14-14-----------14-14-14-14--14-14-14-14------| |---------------------------------------------------------------| |---------------------------------------------------------------|
. . . . . . . . . . . . . . |----------------------------------------------------------| |-------------------------------12h13p12-10\17-------13----| |------------17p14-------9-12-14--------------16--\16--14--| |-14-14-14-14------14-14-----------------------------------| |----------------------------------------------------------| |----------------------------------------------------------|
. . . . . . |-----------------------------------------------------------| |--------------------------\20-19---------------------------| |-9-11-12-11-12-14-12-14-16------16--16-19-17--16-(16)/14v--| |-----------------------------------------------------------| |-----------------------------------------------------------| |-----------------------------------------------------------|
|-----------------------17--15-17-19--------17-19-20-15-17-19-| |-20-19b----------------------------17-19-20------------------| |-------16--16-17-17-16---------------------------------------| |-------------------------------------------------------------| |-------------------------------------------------------------| |-------------------------------------------------------------|
|-20-19b-15--15-17-15--14---------| |---------------------------------| |---------------------------9*ph--| |---------------------------------| |---------------------------------| |---------------------------------|
Rythem behind solo (Guitar 2) |-----------|------------------------------| |-----------|------------------------------| |-----------|--I-Don't Know-for-how--long--| |-----------|------------------------------| |-2-2---222-|------------------------------| |-0-0---000-|------------------------------|
|---------------------------------| |---------------------------------| |---------------------------------| |---------------------------------| |-3-2---3-2---3-2---3-2-----------| |-1-0xx-1-0xx-1-0xx-1-0-0-0-0-000-|
. . . ... |---------------------------------| |---------------------------------| |---------------------------------| |---------------------------------| |-3-2---3-2---3-2---3-2-----------| |-1-0xx-1-0xx-1-0xx-1-0-0-0-0-000-|
. . . ... |---------------------------------| |---------------------------------| |---------------------------------| |---------------------------------| |-3-2---3-2---3-2---3-2-----------| |-1-0xx-1-0xx-1-0xx-1-0-0-0-0-000-|
. . . ... |---------------------------------| |---------------------------------| |---------------------------------| |---------------------------------| |-3-2---3-2---3-2---3-2-----------| |-1-0xx-1-0xx-1-0xx-1-0-0-0-0-000-|
. . . ... Chorus (Guitar 1) (Again) |-----------------------------------------------------| |------8--------------------------------3--5~~~~~~~~--| |--------11~~~~---------------------------------------| |----9-------------------------------5----------------| |-7-------------------------------3-------------------| |-----------------------------------------------------|
|-----------------------------------------------------| |------8--------------------------------3--5~~~~~~~~--| |--------11~~~~---------------------------------------| |----9-------------------------------5----------------| |-7-------------------------------3-------------------| |-----------------------------------------------------|
Chorus (Guitar 2) (Let the chords ring throughout) |-----------------------------------------------------| |-----------------------------------------------------| |---------------------------------5-------------------| |-2-------------------------------5-------------------| |-2-------------------------------3-------------------| |-0------------------------------------------3--2-3---|
|-----------------------------------------------------| |-----------------------------------------------------| |---------------------------------5-------------------| |-2-------------------------------5-------------------| |-2-------------------------------3-------------------| |-0---------------------------------------------------|
Chorus (Guitar 1) (Again) |-----------------------------------------------------| |------8--------------------------------3--5~~~~~~~~--| |--------11~~~~---------------------------------------| |----9-------------------------------5----------------| |-7-------------------------------3-------------------| |-----------------------------------------------------|
|-----------------------------------------------------| |------8--------------------------------3--5~~~~~~~~--| |--------11~~~~---------------------------------------| |----9-------------------------------5----------------| |-7-------------------------------3-------------------| |-----------------------------------------------------|
Chorus (Guitar 2) (Let the chords ring throughout) |-----------------------------------------------------| |-----------------------------------------------------| |---------------------------------5-------------------| |-2-------------------------------5-------------------| |-2-------------------------------3-------------------| |-0------------------------------------------3--2-3---|
|-----------------------------------------------------| |-----------------------------------------------------| |---------------------------------5-------------------| |-2-------------------------------5-------------------| |-2-------------------------------3-------------------| |-0---------------------------------------------------|
|-----------------------------------------------------| |------8--------------------------------3--5~~~~~~~~--| |--------11~~~~---------------------------------------| |----9-------------------------------5----------------| |-7-------------------------------3-------------------| |-----------------------------------------------------|
|-----------------------------------------------------| |------8--------------------------------3--5~~~~~~~~--| |--------11~~~~---------------------------------------| |----9-------------------------------5----------------| |-7-------------------------------3-------------------| |-----------------------------------------------------|
Legend or Key p------------pull off h------------hammer on .------------Palm mute \------------slide up the neck /------------slide down the neck *ph----------pinch harmonic v------------vibrato ~------------let note ring x------------dead note b------------bend sb-----------slight bend That's bulletproof by five finger death punch. enjoy!
Tap to rate this tab
 
# A B C D E F G H I J K L M N O P Q R S T U V W X Y Z