Five Finger Death Punch - American Capitalist tab

Band: Five Finger Death Punch
Song and Album: American Capitalist
Tabbed By: THE_distured_1
Email: darhode@gmail.com
Tuning: B Standard (B E A D F# B)

This song is one of my favorites by FFDP. I used my ear and a few live 
versions to tab out the song. The solo was also from a live version. Some 
parts of it are fast and hard to see so I made them simple formations to save
some time and make it easier.
Other than that here's the song.

Intro:x4|-----------------------------|------------------------------||-----------------------------|------------------------------||-----------------------------|------------------------------||-------------5-5-------------|------------------------------||2----------2-----------------|2-------------2\5-865865865-5-||0-00000000-0-----53205320530-|0-53205320530-----------------| ........ ........... ........... .........
Verse 1:x4|--------------------------------||--------------------------------||--------------------------------||--------------------------------||2---6-5-6-5---2---6-5-6-5-8-7-6-||0---4-3-4-3---0---4-3-4-3-------| . . . . . . . .
Chorus 1:x2Jason Hook|----------------------------------------||----------------------------------------||----------------------------------------||--------------------5---------7---------||2-------------------3---------5---------||0---------------------------------------|
Zoltan Bathory|----------------------------------------||----------------------7-6-7-6---7-6-7-6-||--7-6-7-6---7-6-7-6-5---------5---------||5---------5-----------------------------||----------------------------------------||----------------------------------------|
Verse Interlude:x4|-----------------|-----------------||-----------------|-----------------||-----------------|-----------------||-----------------|-----------------||2-2--------------|2----------------||0-0-532053205320-|0---532053205320-| . . ............ . ............
Verse 2:x4|--------------------------------||--------------------------------||--------------------------------||--------------------------------||2---6-5-6-5---2---6-5-6-5-8-7-6-||0---4-3-4-3---0---4-3-4-3-------| . . . . . . . .
Chorus 2:x2Jason Hook|----------------------------------------||----------------------------------------||----------------------------------------||--------------------5---------7---------||2-------------------3---------5---------||0---------------------------------------|
Zoltan Bathory|----------------------------------------||----------------------7-6-7-6---7-6-7-6-||--7-6-7-6---7-6-7-6-5---------5---------||5---------5-----------------------------||----------------------------------------||----------------------------------------|
Pre-Solox4|-----------------|-----------------||-----------------|-----------------||-----------------|-----------------||-----------------|-----------------||2-2--------------|2----------------||0-0-532053205320-|0---532053205320-| . . ............ . ............
SOLO (Jason Hook): I believe he does some kind of slide or bend to start off the solo but I have no idea how he does it so just improvise or finish the previous rhythm.
|-------------------------||-------------------------||11b-11b-14b-17b-17b-17b/-||-------------------------||-------------------------||-------------------------|
x3|------------------------------------||15-14-12-15-14-12-15-14-12-15-14-12-||------------------------------------||------------------------------------||------------------------------------||------------------------------------|
|------------------------------||14-14-14-14-14-14-15-14-14-15-||------------------------------||------------------------------||------------------------------||------------------------------|
|---------------------------------------||14-14-14-14-14-14-15-14-14-15-14-14-15-||---------------------------------------||---------------------------------------||---------------------------------------||---------------------------------------|
|------------------------------------------------||14-14-14-14-14-14-15-14-14-14-14-15-14-15-14-12-||------------------------------------------------||------------------------------------------------||------------------------------------------------||------------------------------------------------|
|-----------------------------------------------||14-15-14-12-15b--------------------------------||----------------15-14-12-15-14-12-15-14-12-15b-||-----------------------------------------------||-----------------------------------------------||-----------------------------------------------|
x2|------------------------------------||12-------12-------12-------12-------||---14-15----14-15----14-15----14-15-||------------------------------------||------------------------------------||------------------------------------|
|---------------------------------------------||15-14-12-------------------------------------||---------15-14-12-16-15-13-------------------||---------------------------15-14-12-16-15-13-||---------------------------------------------||---------------------------------------------|
|---------------------------------------||---------------------------------------||12-14-15-13-15-16----------12-------12-||------------------12-14-15-------------||------------------------------13-13----||---------------------------------------|
|--------------------------------||--------15b-12-------12-15b-15b-||14b-17b--------14-15------------||--------------------------------||--------------------------------||--------------------------------|
|15-17-19-17-15-17-19-17-15-17-19-17-15-||---------------------------------------||---------------------------------------||---------------------------------------||---------------------------------------||---------------------------------------|
|13-15-17-15-13-15-17-15-13-15-17-15-13-||---------------------------------------||---------------------------------------||---------------------------------------||---------------------------------------||---------------------------------------|
|12-12-12-12-13-15-14-15-17-16-17-19-19b~-||-----------------------------------------||-----------------------------------------||-----------------------------------------||-----------------------------------------||-----------------------------------------|
|------------------------------17---------||18b-17b-15b-17b-18b~----14-15----15-14b~-||---------------------17------------------||-----------------------------------------||-----------------------------------------||-----------------------------------------|
|-------------------------------------------------------||-------------------------------------------------12b~~-||8-9-11b-10-11-12-13b~----------------------------------||----------------------17-15-14-17-15-14-17-15-14-------||-------------------------------------------------------||-------------------------------------------------------|
Solo Rhythm (Zoltan Bathory):x8|--------------------------------||--------------------------------||--------------------------------||--------------------------------||2-------2-------2---------------||0---000-0---000-0-0000000000000-| ... ... .............
Then, during that final bending section of Solo, play this like the outro.x2|----------------------------------------||----------------------7-6-7-6---7-6-7-6-||--------------------5---------5---------||----------------------------------------||2---------------------------------------||0---------------------------------------|
Chorus 3:x4*First Time Jason Holds the last solo bend instead of playing the B5*Jason Hook|----------------------------------------||----------------------------------------||----------------------------------------||--------------------5---------7---------||2-------------------3---------5---------||0---------------------------------------|
Zoltan Bathory|----------------------------------------||------------------------6-7-6-----7-6-7-||--7-6-7-6---7-6-7-6---7---------6-------||5---------5---------5---------5---------||----------------------------------------||----------------------------------------|
Interlude to Outro:x4|-----------------|-----------------||-----------------|-----------------||-----------------|-----------------||-----------------|-----------------||2-2--------------|2-2--------------||0-0-532053205320-|0-0-532053205320-| . . ............ . . ............
OutroBasically its a drum solo. The guitars play a version of the chorus. Listen to song for rhythm.x2Jason Hook|----------------------------------------||----------------------------------------||----------------------------------------||--------------------5---------7---------||2-------------------3---------5---------||0---------------------------------------|
Zoltan Bathory|----------------------------------------||----------------------7-6-7-6---7-6-7-6-||--------------------5---------5---------||----------------------------------------||2---------------------------------------||0---------------------------------------|
Let This Last Chord Ring|----------------||----------------||----------------||----------------||2---------------||0---------------|
The End Key: . = Palm Mute / \ = Slide b = Bend ~ = Hold Note
Tap to rate this tab
 
# A B C D E F G H I J K L M N O P Q R S T U V W X Y Z