Flaw - Payback tab

 Guitar tab for
  Flaw
 "Payback"
by Moses Kim (pickscrape22@hotmail.com)

 ~ - let ring
<> - harmonics
 . - staccato
 / - slide up
 \ - slide down
 * - play fast
 b - bend (full step)

Drop C

Heavy Distortion

Intro:

Guitar 1

|------------------------------------||------------------------------------||--9-9-9-9-9-9~---9-9-9---9----------||--9-9-9-9-9-9~---9-9-9---9----------||--7-7-7-7-7-7~---7-7-7---7----------||------------------------------------| . . . .
Guitar 1 Guitar 2
|-------------------------------------||-------------------------------------||-------------------------------------||-0--2-2-2---0--2-2-2-3-3---3-0-2-2-2-||-0--2-2-2---0--2-2-2-3-3---3-0-2-2-2-||-0--2-2-2---0--2-2-2-3-3---3-0-2-2-2-|
|-------------------------------------||-------------------------------------||-------------------------------------||-0--7~---5~--------------------------||-0--7~---5~--------------------------||-0--7~---5~--------------------------|
|-------------------------------------||-------------------------------------||-------------------------------------||-0--2-2-2---0--2-2-2-3-3---3-0-2-2-2-||-0--2-2-2---0--2-2-2-3-3---3-0-2-2-2-||-0--2-2-2---0--2-2-2-3-3---3-0-2-2-2-|
|-------------------------------------||-------------------------------------||-------------------------------------| x 2|-0--7~---5~--------------------------||-0--7~---5~--------------------------||-0--7~---5~--------------------------|
Verse 1 Guitar 1 Heavy Distortion + Flanger (Reverb - optional)
|------------------------------------||------------------------------------||--9~--9-9-9~----9-9-9---9-----------||--9~--9-9-9~----9-9-9---9-----------||--7~--7-7-7~----7-7-7---7-----------||------------------------------------|
. . . . Guitar 2 Heavy Distortion
|------------------------------------||------------------------------------||------9~-9~--9-9-9~----9-9-9---9----||----9~-------9-9-9~----9-9-9---9----||--7~---------7-7-7~----7-7-7---7----||------------------------------------| . . . .
Chorus Guitar 1 Guitar 2 Heavy Distortion
|-------------------------------------||-------------------------------------||-------------------------------------||-0--2-2-2---0--2-2-2-3-3---3-0-2-2-2-||-0--2-2-2---0--2-2-2-3-3---3-0-2-2-2-||-0--2-2-2---0--2-2-2-3-3---3-0-2-2-2-|
|-------------------------------------||-------------------------------------||-------------------------------------||-0--7~---5~--------------------------||-0--7~---5~--------------------------||-0--7~---5~--------------------------|
|-------------------------------------||-------------------------------------||-------------------------------------||-0--2-2-2---0--2-2-2-3-3---3-0-2-2-2-||-0--2-2-2---0--2-2-2-3-3---3-0-2-2-2-||-0--2-2-2---0--2-2-2-3-3---3-0-2-2-2-|
|-------------------------------------||-------------------------------------||-------------------------------------| x2|-0--7~---5~--------------------------||-0--7~---5~--------------------------||-0--7~---5~--------------------------|
Verse 2 Guitar 1 Heavy Distortion + Flanger (Reverb - optional)
|------------------------------------||------------------------------------||--9~--9-9-9~----9-9-9---9-----------||--9~--9-9-9~----9-9-9---9-----------||--7~--7-7-7~----7-7-7---7-----------||------------------------------------|
. . . . Guitar 2 Heavy Distortion
|------------------------------------||------------------------------------||------9~-9~--9-9-9~----9-9-9---9----||----9~-------9-9-9~----9-9-9---9----||--7~---------7-7-7~----7-7-7---7----||------------------------------------| . . . .
Ending of the verse Guitar1 Heavy Distortion + Flanger
|------------------------------------||------------------------------------||-----9-------9---7~---7------9~-----||--------9~---9---7~------7---9~-----||---7---------7---5~----------7~-----||------------------------------------|
Guitar 2 Heavy Distortion
|------------------------------------||------------------------------------||---9~---/7~--\7~--------------------||---9~---/7~--\7~--------------------||---7~---/5~--\9~--------------------||------------------------------------|
Chorus Guitar 1 Guitar 2 Heavy Distortion
|-------------------------------------||-------------------------------------||-------------------------------------||-0--2-2-2---0--2-2-2-3-3---3-0-2-2-2-||-0--2-2-2---0--2-2-2-3-3---3-0-2-2-2-||-0--2-2-2---0--2-2-2-3-3---3-0-2-2-2-|
|-------------------------------------||-------------------------------------||-------------------------------------||-0--7~---5~--------------------------||-0--7~---5~--------------------------||-0--7~---5~--------------------------|
|-------------------------------------||-------------------------------------||-------------------------------------||-0--2-2-2---0--2-2-2-3-3---3-0-2-2-2-||-0--2-2-2---0--2-2-2-3-3---3-0-2-2-2-||-0--2-2-2---0--2-2-2-3-3---3-0-2-2-2-|
|-------------------------------------||-------------------------------------||-------------------------------------| x2|-0--7~---5~--------------------------||-0--7~---5~--------------------------||-0--7~---5~--------------------------|
Bridge Guitar 1 Heavy Distortion + Flanger
|----------------------------------------||----------------------------------------||----------------------------------------||----------------------------------------||----------------------------------------||--12-11-0---12-11-0---12-11-0---12-11-0-|
|-----------------------------------------||-----------------------------------------||-----------------------------------------||-----------------------------------------| x11|-----------------------------------------||--12-11-12---12-11-0---------------------|
Guitar 2 Heavy Distortion
|---------------------------------------||---------------------------------------||---------------------------------------||---------------------------------------||-----<12>------------------------------||-------------12*-----------------------|
Chorus Guitar 1 Guitar 2 Heavy Distortion
|-------------------------------------||-------------------------------------||-------------------------------------||-0--2-2-2---0--2-2-2-3-3---3-0-2-2-2-||-0--2-2-2---0--2-2-2-3-3---3-0-2-2-2-||-0--2-2-2---0--2-2-2-3-3---3-0-2-2-2-|
|-------------------------------------||-------------------------------------||-------------------------------------||-0--7~---5~--------------------------||-0--7~---5~--------------------------||-0--7~---5~--------------------------|
|-------------------------------------||-------------------------------------||-------------------------------------||-0--2-2-2---0--2-2-2-3-3---3-0-2-2-2-||-0--2-2-2---0--2-2-2-3-3---3-0-2-2-2-||-0--2-2-2---0--2-2-2-3-3---3-0-2-2-2-|
|-------------------------------------||-------------------------------------||-------------------------------------| x2|-0--7~---5~--------------------------||-0--7~---5~--------------------------||-0--7~---5~--------------------------|
Interlude (right after the chorus) Guitar 1 Heavy Distiortion
|--------------------------------------||--------------------------------------||--------------------------------------||--2-2---/7-7---/5---/9-9-9-9----------||--2-2---/7-7---/5---/9-9-9-9----------||--2-2---/7-7---/5---------------------| . . . .Guitar 2Heavy Distortion
|--------------------------------------||--------------------------------------||--------------------------------------||--------------------------------------||---------------------9*---------------||---------------------9*---------------|
Ending Guitar 1 Guitar 2 Heavy Distortion
|-------------------------------------||-------------------------------------||-------------------------------------||-0--2-2-2---0--2-2-2-3-3---3-0-2-2-2-||-0--2-2-2---0--2-2-2-3-3---3-0-2-2-2-||-0--2-2-2---0--2-2-2-3-3---3-0-2-2-2-|
|-------------------------------------||-------------------------------------||-------------------------------------||-0--7~---5~--------------------------||-0--7~---5~--------------------------||-0--7~---5~--------------------------|
|-------------------------------------||-------------------------------------||-------------------------------------||-0--2-2-2---0--2-2-2-3-3---3-0-2-2-2-||-0--2-2-2---0--2-2-2-3-3---3-0-2-2-2-||-0--2-2-2---0--2-2-2-3-3---3-0-2-2-2-|
|-------------------------------------||-------------------------------------||-------------------------------------||-0--7~---5~--------------------------||-0--7~---5~--------------------------||-0--7~---5~--------------------------|
|----------------------------------------||----------------------------------------||-----------<3b>-------------------------||-0--2-2-2------0--2-2-2-3-3---3-0-2-2-2-||-0--2-2-2------0--2-2-2-3-3---3-0-2-2-2-||-0--2-2-2------0--2-2-2-3-3---3-0-2-2-2-|
|-------------------------------------||-------------------------------------||-------------------------------------||-0--7~---5~--------------------------||-0--7~---5~--------------------------||-0--7~---5~--------------------------|
|----------------------------------------||----------------------------------------||----------------------------------------||-0--2-2-2--<3>-0--2-2-2-3-3---3-0-2-2-2-||-0--2-2-2------0--2-2-2-3-3---3-0-2-2-2-||-0--2-2-2------0--2-2-2-3-3---3-0-2-2-2-|
|-------------------------------------||-------------------------------------||-------------------------------------||-0--7~---5~--------------------------||-0--7~---5~--------------------------||-0--7~---5~--------------------------|
|-------------------------------------||-------------------------------------||-------------------------------------||-0--2~~------------------------------||-0--2~~------------------------------||-0--2~~------------------------------|
finally!!!! please rate
Tap to rate this tab
 
# A B C D E F G H I J K L M N O P Q R S T U V W X Y Z