Baker Street chords with lyrics by Foo Fighters - Easy chords and tabs for guitar

Foo Fighters – Baker Street chords

Foo Fighters - Baker Street (Gerry Rafferty cover)
Dropped D Tuning
Tabbed by Pacifica112


Chords used: 

   DADGBe
Dm 000231  or Dm7 : 000211
Am x02210  or Am7 : x02010
Em 222453
G  55578x
A  x02220
C  x32010
D  000232

Intro
           
E||----------------------|----------------------|--------------------|B||----------------------|----------------------|--------------------|G||----------------------|----------------------|--------------------|D||--9p~~~~~~-7----------|--3h~~-5p---3---------|-----------7~~~~~~~~|A||--7~~~~~~~~~~~~-10----|--3~~~~~~~~~~~~~-3----|--5~~~~~~~~~~~~~~~~~|D||--7~~~~(let ring)~~~~~|~~3~~~~~~~~~~~~~~~~~~~|~~5~~~~~~~~~~~~~~~~~|
|--------------------|--------------------|--------------------||--------------------|--------------------|--------------------||--------------------|-----------3--------|--------------------||--7h~~~~~~-9--------|--1~~~~~~~~---------|--3h~~~~~~-5--------||--7~~~~~~~~~~~~~~~~~|~~1~~~~~~~~~~~~~~~~~|~~3~~~~~~~~~~~~~~~~~||--7~~~~~~~~~~~~~~~~~|~~1~~~~~~~~~~~~~~~~~|~~3~~~~~~~~~~~~~~~~~|
|-------------------------|----------------------|--------------------||------1/4 bend-----------|----------------------|--------------------||-------------------------|----------------------|--------------------||~~9~~~-(9)^--9p---7------|--3h~~-5p---3---------|--5h~~~~~~-7--------||~~7~~~~~~~~~~~~~~~~~-10--|--3~~~~~~~~~~~~~-3----|--5~~~~~~~~~~~~~~~~-||~~7~~~~~~~~~~~~~~~~~~~~~~|~~3~~~~~~~~~~~~~~~~~~~|~~5~~~~~~~~~~~~~~~~-|
|--------------------|--------------------|--------------------|||--------------------|--------------------|--------------------|||--------------------|-----------3--------|--------------------|||--7~~~~~~~-9--------|--1~~~~~~~~---------|--3~~~~~~~-5--------|||--7~~~~~~~~~~~~~~~~~|~~1~~~~~~~~~~~~~~~~~|~~3~~~~~~~~~~~~~~~~~|||--7~~~~~~~~~~~~~~~~~|~~1~~~~~~~~~~~~~~~~~|~~3~~~~~~~~~~~~~~~~~||
Solo 1: (Solo for 2nd guitar, chords noted above solo for 1st guitar)
D|----13-12-10---10h12p10-||-10---------13h---------||------------------------||------------------------||------------------------||------------------------|
D|----13-12-10------------||-10---------13h-10------||------------------------||------------------------||------------------------||------------------------|
C A|----13-12-10------------||-10---------13h-13-10---||------------------------||------------------------||------------------------||------------------------|
G|----13-12-10---10h12p10------||-10---------13h----------8-6-||-----------------------------||-----------------------------||-----------------------------||-----------------------------|
A Winding your way down on Baker Street A Light in your head, and dead on your feet Em G Well another crazy day, you drink the night away D And forget about everything A This city's dance makes you feel so cold, it's got A So many people but its got no soul Em G And its taken you so long to find out you were wrong D When you thought it held everything. Dm Am You used to think that it was so easy Dm Am You used to say that it was so easy C G D But you're trying, you're trying now Dm Am Another year and then you'd be happy Dm Am Just one more year and then you'd be happy C G A G But you're crying, you're crying now -----Repeat Solo-----
D|----13-12-10---10h12p10-||-10---------13h---------||------------------------||------------------------||------------------------||------------------------|
D|----13-12-10------------||-10---------13h-10------||------------------------||------------------------||------------------------||------------------------|
C A|----13-12-10------------||-10---------13h-13-10---||------------------------||------------------------||------------------------||------------------------|
G|----13-12-10---10h12p10------||-10---------13h----------8-6-||-----------------------------||-----------------------------||-----------------------------||-----------------------------|
A Way down the street there's a light in his place A You open the door, he's got that look on his face Em G And he asks you where you've been, you tell him who you've seen D And you talk about everything A He's got this dream about buying some land A He's gonna give up the crack and the one night stands Em G And then he'll settle down, it's a quiet little town D And forget about everything Dm Am But you know he'll always keep moving Dm Am You know he's never gonna stop moving C G D Cause he's rolling, he's the rolling stone Dm Am And when you wake up it's a new morning Dm Am The sun is shining it's a new morning C G A D And you're going, you're going home -----Repeat Intro-----
|----------------------|----------------------|--------------------||----------------------|----------------------|--------------------||----------------------|----------------------|--------------------||--9p~~~~~~-7----------|--3~~~-5----3---------|-----------7~~~~~~~~||--7~~~~~~~~~~~~-10----|--3~~~~~~~~~~~~~-3----|--5~~~~~~~~~~~~~~~~~||--7~~~~~~~~~~~~~~~~~~~|~~3~~~~~~~~~~~~~~~~~~~|~~5~~~~~~~~~~~~~~~~~|
|--------------------|--------------------|--------------------||--------------------|--------------------|--------------------||--------------------|-----------3--------|--------------------||--7~~~~~~~-9--------|--1~~~~~~~~---------|--3~~~~~~~-5--------||--7~~~~~~~~~~~~~~~~~|~~1~~~~~~~~~~~~~~~~~|~~3~~~~~~~~~~~~~~~~~||--7~~~~~~~~~~~~~~~~~|~~1~~~~~~~~~~~~~~~~~|~~3~~~~~~~~~~~~~~~~~|
|-------------------------|----------------------|--------------------||------1/4 bend-----------|----------------------|--------------------||-------------------------|----------------------|--------------------||~~9~~~-(9)^--9----7------|--3~~~-5----3---------|--5~~~~~~~-7--------||~~7~~~~~~~~~~~~~~~~~-10--|--3~~~~~~~~~~~~~-3----|--5~~~~~~~~~~~~~~~~-||~~7~~~~~~~~~~~~~~~~~~~~~~|~~3~~~~~~~~~~~~~~~~~~~|~~5~~~~~~~~~~~~~~~~-|
|--------------------|--------------------|--------------------|||--------------------|--------------------|--------------------|||--------------------|-----------3--------|--------------------|||--7~~~~~~~-9--------|--1~~~~~~~~---------|--3~~~~~~~-5--------|||--7~~~~~~~~~~~~~~~~~|~~1~~~~~~~~~~~~~~~~~|~~3~~~~~~~~~~~~~~~~~|||--7~~~~~~~~~~~~~~~~~|~~1~~~~~~~~~~~~~~~~~|~~3~~~~~~~~~~~~~~~~~||
-----Repeat Solo-----
D|----13-12-10---10h12p10-||-10---------13h---------||------------------------||------------------------||------------------------||------------------------|
D|----13-12-10------------||-10---------13h-10------||------------------------||------------------------||------------------------||------------------------|
C A|----13-12-10------------||-10---------13h-13-10---||------------------------||------------------------||------------------------||------------------------|
G|----13-12-10---10h12p10------||-10---------13h----------8-6-||-----------------------------||-----------------------------||-----------------------------||-----------------------------|
Final Solo: (Solo 1's chords strummed while playing this)
|-20-20-20-20\22-17-17-15-13-17b-15-13\10--||------------------------------------------||------------------------------------------||------------------------------------------||------------------------------------------||------------------------------------------|
| (x10)|-10b~~~~~~~-13-15-17-|--17b-||---------------------|------||---------------------|------||---------------------|------||---------------------|------||---------------------|------|
|-20-20-20-20\22-10b-10-8-----------------------||-------------------------10-8--10-8------------||------------------------------------10-7-------||-----------------------------------------10\12-||-----------------------------------------------||-----------------------------------------------|
(x12)|-17-|--17--|b|----|------||----|------||----|------||----|------||----|------|
Key: 10b - Bend note 13h - Hammer-on 12p - Pull-off 13/10 - Slide to next note 10~~~ - Hold note (7) - Ghost note, don't necessarily play it (x12) - Play 12 times Acknowledgment: The only part of this tab I take credit for is the revised intro riff. None of the tabs I could find online show that the intro is on one guitar, so here's my take at it. I borrowed the solo tab and chords from an unknown user. I modified the tab (and chord diagrams) to fit the dropped tuning, and polished it up a bit. Much thanks to the previous author.
Please rate this tab:
x1.0