For The Fallen Dreams - New Beginnings tab

For the Fallen dreams 
Changes
New Beginnings
Drop A# Tuning
Tabbed by Ronny. This is what I heard by ear, and how I think it's played.
One of my favorite bands of all time, For the Fallen Dreams.

Legend:* - Palm mute~ - note ring outx - muted stringp - pull off|----------------|------------------------------|--------------------------||----------------|---------13-------------------|--------------------------||----------------|---12-------12----12----12----|9-9-9-9-9--9--9--9--9--9--||0--0-0-0-0-0-0--|15----15-------15----15----15-|8-8-8-8-8--10-10-10-10-10-||0--0-0-0-0-0-0--|------------------------------|8-8-8-8-8--10-10-10-10-10-||0--0-0-0-0-0-0--|------------------------------|8-8-8-8-8--10-10-10-10-10-| * * * * * * * * *
|-------------------------|---------------------------||-------------------------|---------------------------||-------------------------|-9-9-9-9-9-10-10-10-10-10--||555-555-555-555-555-555--|-x-x-x-x-x--8--8--8--8--8--||555-555-555-555-555-555--|-7-7-7-7-7--8--8--8--8--8--| (2 times)|555-555-555-555-555-555--|-8-8-8-8-8--8--8--8--8--8--| *** *** *** *** *** ***
|----------------|------------------------------||----------------|---------13-------------------||----------------|---12-------12----12----12----||0--0-0-0-0-0-0--|15----15-------15----15----15-||0--0-0-0-0-0-0--|------------------------------||0--0-0-0-0-0-0--|------------------------------| * * * * * *
(0:26-0:48)|------------------------------|---------------------------------||------------------------------|---------------------------------||------------------------------|---------------------------------||------------------------------|---------------------------------||0-00-0-0-000-000-0-00-0-0-0-1-|-0-00-0-0-000-000-0-00-0-0-0-1-0-||0-00-0-0-000-000-0-00-0-0-0-1-|-0-00-0-0-000-000-0-00-0-0-0-1-0-| * ** * * *** *** * ** * * ** * * *** *** * ** * *
|------------------------------|------------------------||------------------------------|------------------------||------------------------------|------------------------||------------------------------|------------------------||0-00-0-0-000-000-0-00-0-0-0-1-|------------------------||0-00-0-0-000-000-0-00-0-0-0-1-|0-555-444-111-0-1-4-1-0-| (2 times) * ** * * *** *** * ** * *
(0:49-1:01)|------------|17-13-12-13-12-------|------------||------------|---------------13----|------------||------------|------------------14-|------------||------------|---------------------|------------||0-0000-0-0~-|---------------------|0-0000-0-0~-||0-0000-0-0~-|---------------------|0-0000-0-0~-| ( 2 times) **** ****
|----------------|------------------------------||----------------|---------13-------------------||----------------|---12-------12----12----12----||0--0-0-0-0-0-0--|15----15-------15----15----15-||0--0-0-0-0-0-0--|------------------------------||0--0-0-0-0-0-0--|------------------------------| * * * * * *
(1:02-1:23)
|-------------------------------|-----------------------------------||-------------------------------|-----------------------------------||-------------------------------|-----------------------------------||-----------------7 ----5---7-8-|-----------------------------------||0--0-0-0-0-0-0-0-5-0-0-3-0-5-6-|0--0-0-0-0-0-0-0-------------------||0--0-0-0-0-0-0-0---0-0---0-----|0--0-0-0-0-0-0-0-4-1-0-1-4-1-0-1-0-| * * * * * * * * * * * * * * * * *
|-------------------------------|-----------------------||-------------------------------|-----------------------||-------------------------------|-----------------------||-----------------7 ----5---7-8-|-----------------------||0--0-0-0-0-0-0-0-5-0-0-3-0-5-6-|----------------000-00-||0--0-0-0-0-0-0-0---0-0---0-----|4p0-4p0-4p0-4p0-111-11-| * * * * * * * * * * **
|-------------------------------|-----------------------------------||-------------------------------|-----------------------------------||-------------------------------|-----------------------------------||-----------------7 ----5---7-8-|-----------------------------------||0--0-0-0-0-0-0-0-5-0-0-3-0-5-6-|0--0-0-0-0-0-0-0-------------------||0--0-0-0-0-0-0-0---0-0---0-----|0--0-0-0-0-0-0-0-4-1-0-1-4-1-0-1-0-| * * * * * * * * * * * * * * * * *
|-------------------------------|-----------------------||-------------------------------|-----------------------||-------------------------------|-----------------------||-----------------7 ----5---7-8-|-----------------------||0--0-0-0-0-0-0-0-5-0-0-3-0-5-6-|----------------000-00-||0--0-0-0-0-0-0-0---0-0---0-----|4p0-4p0-4p0-4p0-111-11-| * * * * * * * * * * **
|-----------------------||-----------------------||-----------------------||-----------------------||----------------000-00-||4p0-4p0-4p0-4p0-111-11-| (3 times) **
(1:32-1:35) fill|----------------------||----------------------||----------------------||----------------------||000-00-000-00-0-0-0-0-||111-11-111-11-1-1-1-1-| *** ** *** ** * * * *
(1:36-1:49|-------------------|----------------------------------------------||-------------------|----------------------------------------------||-------------------|----------------------------------------------||-------------------|----------------------------------------------||0-0-0-0-0-0--0-0-0-|--0-0-0-0-0-0--0-00-00--0-0-0-0-0-0--555-44-11||1-1-1-1-1-1--1-1-1-|--1-1-1-1-1-1--1-11-11--1-1-1-1-1-1-----------| 2 times * * * * * * * * * * * * * * * * ** ** * * * * * *
(1:50-1:55)|------------------||------------------||------------------||0~--0~--00-0-0-0-0||0~--0~--00-0-0-0-0||0~--0~--00-0-0-0-0| * *
(1:56-2:15)|------------------12-------------------------------||------10------------------------13----------11-----||---10----10----10-----10-----10----10----10----10--||12----------12------------12----------12-----------||---------------------------------------------------||---------------------------------------------------| 4 (times)
(2:16-2:34)|----------------------------||------10~-------------------||---10~----------------------||12~---------0-0-0-0-0-0-0-0-||------------0-0-0-0-0-0-0-0-||------------0-0-0-0-0-0-0-0-| * * * *
|-----------------------------------------||-----------------------------------------||10-10-10-10-10-10-10-10------------------||8--8--8--8--8--8--8--8---0-0-0-0-0-0-0-0-||8--8--8--8--8--8--8--8---0-0-0-0-0-0-0-0-||8--8--8--8--8--8--8--8---0-0-0-0-0-0-0-0-| 3 times * * * *
(2:35-2:42)|----------------||----------------||----------------||0-0-0-0-0-0-0-0-||0-0-0-0-0-0-0-0-||0-0-0-0-0-0-0-0-| 3 times * * * *
(2:43-2:53)
|--------------------------------||--------------------------------||--------------------------------||11-11-11------------------------||9--9--9---12-13--0-0-00-0-0-00--||----------12-13--0-0-00-0-0-00--| 4 times * * ** * * **
(2:54-3:03)|-------------------------------||-------------------------------||-------------------------------||-------------------------------||----00----------0-0-00--0-0-00-||1p0-00-4p0-1----0-0-00--0-0-00-| 4 times * * ** * * **
|-----------|17-13-12-13-12-------|------------||-----------|---------------13----|------------||-----------|------------------14-|------------||-----------|---------------------|------------||0-0000-0-0-|---------------------|0-0000-0-0~-||0-0000-0-0-|---------------------|0-0000-0-0~-| ( 2 times) **** ****
|-----------|17-13-12-13-12-------||-----------|---------------13----||-----------|------------------14-||-----------|---------------------||0-0000-0-0-|---------------------||0-0000-0-0-|---------------------| ****
(3:15-3:37)|8-8-8-8-8-8------------------||6-6-6-6-6-6------------------||9-9-9-9-9-9---10-10-10-10-10-||0-0-0-0-0-0----8--8--8--8--8-||0-0-0-0-0-0----8--8--8--8--8-||0-0-0-0-0-0----8--8--8--8--8-| 4 times
|----------------|------------------------------|--||----------------|---------13-------------------|--||----------------|---12-------12----12----12----|--||0--0-0-0-0-0-0--|15----15-------15----15----15-|0-||0--0-0-0-0-0-0--|------------------------------|0-||0--0-0-0-0-0-0--|------------------------------|0-| * * * * * *
End, enjoy and please rate and comment on any corrections you feel is needed.
Tap to rate this tab
 
# A B C D E F G H I J K L M N O P Q R S T U V W X Y Z