For Today - Elijah The Forerunner tab

so heres my version of it. i have a cover on youtube that you should watch and be
sure to subscribe! lol. heres my vid-

http://www.youtube.com/watch?v=f4PfDy5n04A

INTRO|-------------------------------------------||-----------------8-10--101010-888----------||------------9-10------------------99-1010--||------5-7-8--------------------------------||-5-7-8-------------------------------------||-------------------------------------------|
|-------------------------------||----------------8-10-----------||-----------9-10----------------||------5-7-8-----------5b-------||-5-7-8-------------------7b----||-------------------------------|
|----------------||----------------||----------------|X4|---3------------||-5-----4~5p4----||-----8----------|
|----------||----------||----------||----------||-0-0--000-||-0-0--000-|
I CALL DOWN FIRE! repeat the above riff. you will know which one.
|----------------------------------------------||----------------------------------------------||----------------------------------------------||----------------------------------------------||-00-00-0000-00-0-0--0-0000--00-00-0000--00-00-||-00-00-0000-00-1-1--0-0000--00-00-0000--00-00-|
THIS IS ALL TREMELO PICKED BUT IM JUST PUTTING THE NOTE|-----------------||-10-8-10-11-10---||-----------------||-----------------||-----------------||-----------------|
|--------------------------------||-10-8-10-15-14------------------||--------------15-10-9-7-12-10-9-||--------------------------------|X3|--------------------------------||--------------------------------|
on the fourth time you play:|-------------------------------||-10-8-10-15-14-----------------||--------------15-10-9-7-6------||-------------------------------||-------------------------------||-------------------------------|
|----------------------------||----------------------------||-----6-9-6--------6-9-6-----|>this is played 2X before|-7-8-------8--7-8-------8---|the harmony|----------------------------||----------------------------|
THE HARMOY TO THE RIFF ABOVE|------------------------------||-----5-8-5--------5-8-5-------||-6-7-------7--6-7-------7-----||---------------------------0--||---------------------------0--||---------------------------0--|
|----------------------------------------------------||-10-8h10p8----------------------------------10~-8~--||-----------10-9--6-7-----6-9-6--6-7-7-9-6-6---------||---------------------7-8----------------------------||----------------------------------------------------||----------------------------------------------------|
|----------------------------------------------------||-10-8h10p8----------------------------------8~-10~--||-----------10-9--6-7-----6-9-6--6-7-7-9-6-6---------||---------------------7-8----------------------------||----------------------------------------------------||----------------------------------------------------|
|----------------------------------------------------||-10-8h10p8----------------------------------10~-8~--||-----------10-9--6-7-----6-9-6--6-7-7-9-6-6---------||---------------------7-8----------------------------||----------------------------------------------------||----------------------------------------------------|
|-------5-6p3------------7-8----||------6-----4----------8---10--||-----7-------3--------9--------||----7---------4------9---------||-5h8-----------6-7h10----------||-------------------------------|
then start over with the above riff just after the sweeps play
|------------||-10---------||----9-7-6~--||------------||------------||------------|
|------------5-6-||-----------6----||----------7-----||---------7------||-0-0--5h8-------||-0-0------------|
Tap to rate this tab
 
# A B C D E F G H I J K L M N O P Q R S T U V W X Y Z