Forgotten Tomb - Nightfrost tab

Song: Nightfrost
Band: Forgotten Tomb
Album: Obscura Arcana Mortis
Tabbed By Dave Siddons (farmer_siddons@hotmail.com)
Tuning: Eb ( Step Down)

Riff A|--------------------------|----------------------------------||--------------------------|----------------------------------||--------------------------|----------------------------------||--8--8--7--7--8--8--7--7--|--11--11--10--10--11--11--10--10--||--6--6--5--5--6--6--5--5--|---9---9---8---8---9---9---8---8--||--------------------------|----------------------------------|
Riff B|--------------------------|--------------------------||--------------------------|--------------------------||--------------------------|--------------------------||--------------7--7--6--6--|--------------------------||--8--8--7--7--5--5--4--4--|--8--8--7--7--6--6--6--6--||--6--6--5--5--------------|--6--6--5--5--4--4--4--4--|
Riff C|--------------------------|--------------------------||--------------------------|--------------------------||--------------------------|--------------------------||--------------------------|--4--4--4--4--3--3--3--3--||--2-----------------------|--2--2--2--2--1--1--1--1--||--0----0-0-0--0--0--0--0--|--------------------------|
|--------------------------|--------------------------||--------------------------|--------------------------||--------------------------|--------------------------||--------------------------|--------------------------||--2-----------------------|--6--6--6--6--5--5--5--5--||--0----0-0-0--0--0--0--0--|--4--4--4--4--3--3--3--3--|
Verse|----------------------|--------------------||----------------------|--------------------||----------------------|--------------------||-------4----3---------|--------------------||--2----2----1----3----|--6--------5--------||--0--------------1----|--4--------3--------|
Riff D1 - Rhythm|--------------------------|--------------------------||--------------------------|--------------------------||--------------------------|--------------------------||--------------------------|--3-----------------------||--2-----------------------|--1-----------------------||--0-----------------------|--------------------------|
|--------------------------|--------------------------||--------------------------|--------------------------||--------------------------|--------------------------||--------------------------|--------------------------||--2-----------------------|--6-----------5-----------||--0-----------------------|--4-----------3-----------|
Riff D1 - Lead|----------------------------------|----------------------------------||----------------------------------|----------------------------------||----------------------------------|----------------------------------||----------------------------------|--------------------------6-6-6-6-||----------7-7-7-7-6-6-6-6---------|----------5-5-5-5-8-8-8-8---------||--0-0-0-0-----------------8-8-8-8-|--0-0-0-0-------------------------|
|----------------------------------|----------------------------------||----------------------------------|----------------------------------||----------------------------------|----------------------------------||----------------------------------|----------------------------------||----------7-7-7-7-6-6-6-6---------|----------6-6-6-6---------4-4-4-4-||--0-0-0-0-----------------8-8-8-8-|--5-5-5-5---------3-3-3-3---------|
Riff D2 - Rhythm|--------------------------|--------------------------||--------------------------|--------------------------||--------------------------|--------------------------||--------------------------|--3--3--3--3--3--3--3--3--||--2--2--2--2--2--2--2--2--|--1--1--1--1--1--1--1--1--||--0--0--0--0--0--0--0--0--|--------------------------|
|--------------------------|--------------------------||--------------------------|--------------------------||--------------------------|--------------------------||--------------------------|--------------------------||--2--2--2--2--2--2--2--2--|--6--6--6--6--5--5--5--5--||--0--0--0--0--0--0--0--0--|--4--4--4--4--3--3--3--3--|
Lead Harmony|----------------------------------------------||----------------------------------12-12-12-12-||--9-9-9-9-11-11-11-11-12-12-12-12-------------||----------------------------------------------||----------------------------------------------||----------------------------------------------|
|--------------------------------------------------||--11-11-11-11-------------------------------------||--------------12-12-12-12-11-11-11-11-------------||--------------------------------------11-11-11-11-||--------------------------------------------------||--------------------------------------------------|
|----------------------------------------------||----------------------11-11-11-11-------------||----------10-10-10-10-------------10-10-10-10-||--9-9-9-9-------------------------------------||----------------------------------------------||----------------------------------------------|
|----------------------------------||----------------------------------||----------8-8-8-8---------6-6-6-6-||--7-7-7-7---------5-5-5-5---------||----------------------------------||----------------------------------|
Riff E|--------------------------|--------------------------||--------------------------|--------------------------||--------------------------|--------------------------||--------------------------|--------------------------||--------4-----5-----4-----|--5-----7-----5-----4-----||--0--0--2--0--3--0--2--0--|--3--0--5--0--3--0--2--0--|
|--------------------------|--------------------------||--------------------------|--------------------------||--------------------------|--------------------------||--3--3--3--3--3--3--3--3--|--------------------------||--1--1--1--1--1--1--1--1--|--3--3--3--3--3--3--3--3--||--------------------------|--1--1--1--1--1--1--1--1--|
Riff F|--------------------------|--------------------------||--------------------------|--------------------------||--------------------------|--------------------------||--------------------------|--9--9--9--9--8--8--------||--7--7--7--7--8--8--7--7--|--7--7--7--7--6--6--8--8--||--5--5--5--5--6--6--5--5--|--------------------6--6--|
|--------------------------|--------------------------||--------------------------|--------------------------||--------------------------|--------------------------||--------------------------|--8--8--8--8--7--7--------||--7--7--7--7--8--8--7--7--|--6--6--6--6--5--5--8--8--||--5--5--5--5--6--6--5--5--|--------------------6--6--|
Tap to rate this tab
 
# A B C D E F G H I J K L M N O P Q R S T U V W X Y Z