Four Letter Lie - Full Tilt Boogie tab

SONG: Full Tilt Boogie
BAND: Four Letter Lie
ALBUM: Let Your Body Take Over
TUNING: Db Ab Db Gb Bb Eb
KEY
~ = Let Ring
. = Palm Mute
x = mute
h = hammer on
* = harmonic
^ = bend

Gtr I (Kevin)Intro|-----------------------------------||-----------------------------------||--7-7-7-7-7-7-7-7-7-7-7-7-7-7-7-7--||--x-x-x-x-x-x-x-x-x-x-x-x-x-x-x-x--||--5-5-5-5-5-5-5-5-5-5-5-5-5-5-5-5--||-----------------------------------|
|-----------------------------------||-----------------------------------||--7-7-7-7-7-7-7-7-7-7-7-7-7-7-7-7--||--x-x-x-x-x-x-x-x-x-x-x-x-x-x-x-x--||--5-5-5-5-5-5-5-5-5-5-5-5-5-5-5-5--||-----------------------------------|
|-------------------------------------||-------------------------------------||--9-9-9-9-9-9-9-9--1010101010101010--||--x-x-x-x-x-x-x-x--x-x-x-x-x-x-x-x---||--7-7-7-7-7-7-7-7--8-8-8-8-8-8-8-8---||-------------------------------------|
|-------------------------------------||-------------------------------------||--9-9-9-9-9-9-9-9--1010101010101010--||--x-x-x-x-x-x-x-x--x-x-x-x-x-x-x-x---||--7-7-7-7-7-7-7-7--8-8-8-8-8-8-8-8---||-------------------------------------|
Verse|------------------------------------------|||------------------------------------------|||------------------------------------------|||--0----------------0----------0------0-0--||X2|--0-----5----------0-----5----0------0-0--|||--0h5h8---80h5h8--0h5h8---8--0h5h8--0-0--||
|------------------------------------------|||------------------------------------------|||------------------------------------------|||--0----------------0----------0------0-0--||X2|--0-----5----------0-----5----0------0-0--|||--0h5h8-0-8-0h5h8--0h5h8-0-8--0h5h8--0-0--||
Chorus|--------------------------------------|||--------------------------------------|||--7-7-7-7-7-7-7-7--9-9-9-9--10101010--|||--x-x-x-x-x-x-x-x--x-x-x-x--x-x-x-x---||X3|--5-5-5-5-5-5-5-5--7-7-7-7--8-8-8-8---|||--------------------------------------||
|-------------------------------------||-------------------------------------||--9-9-9-9-9-9-9-9--1010101010101010--||--x-x-x-x-x-x-x-x--x-x-x-x-x-x-x-x---||--7-7-7-7-7-7-7-7--8-8-8-8-8-8-8-8---||-------------------------------------|
|-----------------------------------------------------|||--------13-13-13-13-13-13---------13-13-13-13-13-13--|||--9/10----------------------9/10---------------------|||-----------------------------------------------------||X2|-----------------------------------------------------|||-----------------------------------------------------||
|------------------------------------||------------------------------------||------------------------------------||--10101010101010101010101010101010--||--8-8-8-8-8-8-8-8-8-8-8-8-8-8-8-8---||--8-8-8-8-8-8-8-8-8-8-8-8-8-8-8-8---|
|------------------------------------||------------------------------------||------------------------------------||--10101010101010101010101010101010--||--8-8-8-8-8-8-8-8-8-8-8-8-8-8-8-8---||--8-8-8-8-8-8-8-8-8-8-8-8-8-8-8-8---|
|-----------------------------------||-----------------------------------||-----------------------------------||--0-0-0-0-0-0-0-0-0-0-0-0-0-0-0-0--||--0-0-0-0-0-0-0-0-0-0-0-0-0-0-0-0--||--0-0-0-0-0-0-0-0-0-0-0-0-0-0-0-0--|
|---------------------------------------------------||---------------------------------------------------||---------------------------------------------------||--10-10-10-10-10-10-10-10-10-10-10-10-10-10-10-10--||--10-10-10-10-10-10-10-10-10-10-10-10-10-10-10-10--||--10-10-10-10-10-10-10-10-10-10-10-10-10-10-10-10--|
Post-Chorus|-----------------------------------------------------------||-----------------------------------------------------------||-----------------------------------------------------------||--0~~~------------0~~~------------0~~~------------0~~~-----||--0~~~--5-5-5-5---0~~~--5-5-5-5---0~~~--5-5-5-5---0~~~--5--||--0~~~--5-5-5-5---0~~~--5-5-5-5---0~~~--5-5-5-5---0~~~--5--|H * * * * * * * * * * * * *
|--------------------------------||--------------------------------||--------------------------------||--8\-0--0-0-----5-8--8\-0--0-0--||--8\-0--0-0-----5-8--8\-0--0-0--||--8\-0--0-0-----5-8--8\-0--0-0--|
|---------------------------------------------||---------------------------------------------||---------------------------------------------||--5-8--8\-0--0-0-----5-8--8\-0--0-0-----5-8--||--5-8--8\-0--0-0-----5-8--8\-0--0-0-----5-8--||--5-8--8\-0--0-0-----5-8--8\-0--0-0-----5-8--|
|--------------------------------------15------------/15--------||--10--8--10p8-----10--8--10p8------13----13----13------13------||--------------10----------------12----------12------------12---||---------------------------------------------------------------||---------------------------------------------------------------||---------------------------------------------------------------|
|--------------------------------||--------------------------------||--------------------------------||--8\-0--0-0-----5-8--8\-0--0-0--||--8\-0--0-0-----5-8--8\-0--0-0--||--8\-0--0-0-----5-8--8\-0--0-0--|
|---------------------------------------------||---------------------------------------------||---------------------------------------------||--5-8--8\-0--0-0-----5-8--8\-0--0-0-----5-8--||--5-8--8\-0--0-0-----5-8--8\-0--0-0-----5-8--||--5-8--8\-0--0-0-----5-8--8\-0--0-0-----5-8--|
|----------------------------------------------------||----------------------------------------------------||----------------------------------------------------||--101010101010101010101010101010101010101010101010--||--8-8-8-8-8-8-8-8-8-8-8-8-8-8-8-8-8-8-8-8-8-8-8-8---||--8-8-8-8-8-8-8-8-8-8-8-8-8-8-8-8-8-8-8-8-8-8-8-8---|
|-----------------------------||-----------------------------||-------------------10101010--||--0-0-0-0-0-0-0-0--x-x-x-x---||--0-0-0-0-0-0-0-0--8-8-8-8---||--0-0-0-0-0-0-0-0------------|
PM . . . . . . . .|----------------------------------------------------||----------------------------------------------------||----------------------------------------------------||--101010101010101010101010101010101010101010101010--||--8-8-8-8-8-8-8-8-8-8-8-8-8-8-8-8-8-8-8-8-8-8-8-8---||--8-8-8-8-8-8-8-8-8-8-8-8-8-8-8-8-8-8-8-8-8-8-8-8---|
|-----------------------||-----------------------||-------------10101010--||--0---0---0--x-x-x-x---||--0---0---0--8-8-8-8---||--0---0---0------------|
PM . . . |----------------------------------------------------||----------------------------------------------------||----------------------------------------------------||--101010101010101010101010101010101010101010101010--||--8-8-8-8-8-8-8-8-8-8-8-8-8-8-8-8-8-8-8-8-8-8-8-8---||--8-8-8-8-8-8-8-8-8-8-8-8-8-8-8-8-8-8-8-8-8-8-8-8---|
|-----------------------------||-----------------------------||-------------------10101010--||--0-0-0-0-0-0-0-0--x-x-x-x---||--0-0-0-0-0-0-0-0--8-8-8-8---||--0-0-0-0-0-0-0-0------------|
PM . . . . . . . .|----------------------------------------------------||----------------------------------------------------||----------------------------------------------------||--101010101010101010101010101010101010101010101010--||--8-8-8-8-8-8-8-8-8-8-8-8-8-8-8-8-8-8-8-8-8-8-8-8---||--8-8-8-8-8-8-8-8-8-8-8-8-8-8-8-8-8-8-8-8-8-8-8-8---|
|-----------------------------------------||-----------------------------------------||-----------------------------------------||--0---0---0---0---0---0---0~~-0~~-0~~-0--||--0---0---0---0---0---0---0~~-0~~-0~~-0--||--0---0---0---0---0---0---0~~-0~~-0~~-0--|
PM . . . . . .Chorus|--------------------------------------|||--------------------------------------|||--7-7-7-7-7-7-7-7--9-9-9-9--10101010--|||--x-x-x-x-x-x-x-x--x-x-x-x--x-x-x-x---||X3|--5-5-5-5-5-5-5-5--7-7-7-7--8-8-8-8---|||--------------------------------------||
|-------------------------------------||-------------------------------------||--9-9-9-9-9-9-9-9--1010101010101010--||--x-x-x-x-x-x-x-x--x-x-x-x-x-x-x-x---||--7-7-7-7-7-7-7-7--8-8-8-8-8-8-8-8---||-------------------------------------|
|-----------------------------------------------------|||--------13-13-13-13-13-13--------13-13-13--13-13-13--|||--9/10---------------------9/10----------------------|||-----------------------------------------------------||X2|-----------------------------------------------------|||-----------------------------------------------------||
|------------------------------------||------------------------------------||------------------------------------||--10101010101010101010101010101010--||--8-8-8-8-8-8-8-8-8-8-8-8-8-8-8-8---||--8-8-8-8-8-8-8-8-8-8-8-8-8-8-8-8---|
|------------------------------------||------------------------------------||------------------------------------||--10101010101010101010101010101010--||--8-8-8-8-8-8-8-8-8-8-8-8-8-8-8-8---||--8-8-8-8-8-8-8-8-8-8-8-8-8-8-8-8---|
|-----------------------------------||-----------------------------------||-----------------------------------||--0-0-0-0-0-0-0-0-0-0-0-0-0-0-0-0--||--0-0-0-0-0-0-0-0-0-0-0-0-0-0-0-0--||--0-0-0-0-0-0-0-0-0-0-0-0-0-0-0-0--|
|---------------------------------------------------||---------------------------------------------------||---------------------------------------------------||--10-10-10-10-10-10-10-10-10-10-10-10-10-10-10-10--||--10-10-10-10-10-10-10-10-10-10-10-10-10-10-10-10--||--10-10-10-10-10-10-10-10-10-10-10-10-10-10-10-10--|
Break Down|--------0------------------0---------------||--------6------------------6---------------||-------------------------------------------||-------------------------------------0--0--||-------------------------------------0--0--||--0h5h8---8-0h5h8-x-x0h5h8---8-0h5h8-0--0--|
|-------------------------------------------|||-------------------------------------------|||-------------------------------------------|||--0---------0-----x-x0---------0-----0--0--||X2|--0-----5---0-----x-x0-----5---0-----0--0--|||--0h5h8-0-8-0h5h8-x-x0h5h8-0-8-0h5h8-0--0--||
|-------------------------------------------|||-------------------------------------------|||-------------------------------------------|||--0---------0--------0---------------0--0--||X2|--0-----5---0h5h8----0h5h8-5---------0--0--|||--0h5h8-0-8-0h5h8----0h5h8-0-8-0h5h8-0--0--||
Gtr II (Connor)Intro|------------------------------------|||------------------------------------|||------------------------------------|||--0-0-0-0-0-0-0-0--8-8-8-8-8-8-8-8--|||--0-0-0-0-0-0-0-0--8-8-8-8-8-8-8-8--|||--0-0-0-0-0-0-0-0--8-8-8-8-8-8-8-8--||
|X2|------------------------------------|||------------------------------------|||------------------------------------|||--5-5-5-5-5-5-5-5--8-8-8-8-8-8-8-8--|||--5-5-5-5-5-5-5-5--8-8-8-8-8-8-8-8--|||--5-5-5-5-5-5-5-5--8-8-8-8-8-8-8-8--||
Verse|------------------------------------------|||------------------------------------------|||------------------------------------------|||--0----------------0----------0------0-0--||X2|--0-----5----------0-----5----0------0-0--|||--0h5h8---80h5h8--0h5h8---8--0h5h8--0-0--||
|------------------------------------------|||------------------------------------------|||------------------------------------------|||--0----------------0----------0------0-0--||X2|--0-----5----------0-----5----0------0-0--|||--0h5h8-0-8-0h5h8--0h5h8-0-8--0h5h8--0-0--||
Chorus|------------------------------------||------------------------------------||------------------------------------||--10101010101010101010101010101010--||--8-8-8-8-8-8-8-8-8-8-8-8-8-8-8-8---||--8-8-8-8-8-8-8-8-8-8-8-8-8-8-8-8---|
|------------------------------------||------------------------------------||------------------------------------||--10101010101010101010101010101010--||--8-8-8-8-8-8-8-8-8-8-8-8-8-8-8-8---||--8-8-8-8-8-8-8-8-8-8-8-8-8-8-8-8---|
|-----------------------------------||-----------------------------------||-----------------------------------||--0-0-0-0-0-0-0-0-0-0-0-0-0-0-0-0--||--0-0-0-0-0-0-0-0-0-0-0-0-0-0-0-0--||--0-0-0-0-0-0-0-0-0-0-0-0-0-0-0-0--|
|---------------------------------------------------||---------------------------------------------------||---------------------------------------------------||--10-10-10-10-10-10-10-10-10-10-10-10-10-10-10-10--||--10-10-10-10-10-10-10-10-10-10-10-10-10-10-10-10--||--10-10-10-10-10-10-10-10-10-10-10-10-10-10-10-10--|Repeat X3
Post-Chorus|-----------------------------------------------------------||-----------------------------------------------------------||-----------------------------------------------------------||--0~~~------------0~~~------------0~~~------------0~~~-----||--0~~~--5-5-5-5---0~~~--5-5-5-5---0~~~--5-5-5-5---0~~~--5--||--0~~~--5-5-5-5---0~~~--5-5-5-5---0~~~--5-5-5-5---0~~~--5--|
H * * * * * * * * * * * * *|-----------------------------------||-------------5------------------5--||-------------8------------------8--||--8\-0--0-0-----5-8--8\-0--0-0-----||--8\-0--0-0-----5-8--8\-0--0-0-----||--8\-0--0-0-----5-8--8\-0--0-0-----|
|---------------------------------------------||------------------5------------------5-------||------------------8------------------8-------||--5-8--8\-0--0-0-----5-8--8\-0--0-0-----5-8--||--5-8--8\-0--0-0-----5-8--8\-0--0-0-----5-8--||--5-8--8\-0--0-0-----5-8--8\-0--0-0-----5-8--|
|------------------------------------||------------------------------------||------------------------------------||--10101010101010101010101010101010--||--8-8-8-8-8-8-8-8-8-8-8-8-8-8-8-8---||--8-8-8-8-8-8-8-8-8-8-8-8-8-8-8-8---|
|------------------------------------------||------------------------------------------||------------------------------------------||--10-10-10-10-10-10-10-10-10--10--10--10--||--10-10-10-10-10-10-10-10-10--10--10--10--||--10-10-10-10-10-10-10-10-10--10--10--10--|
PM .. .. ..|-----------------------------------||-------------5------------------5--||-------------8------------------8--||--8\-0--0-0-----5-8--8\-0--0-0-----||--8\-0--0-0-----5-8--8\-0--0-0-----||--8\-0--0-0-----5-8--8\-0--0-0-----|
|---------------------------------------------||------------------5------------------5-------||------------------8------------------8-------||--5-8--8\-0--0-0-----5-8--8\-0--0-0-----5-8--||--5-8--8\-0--0-0-----5-8--8\-0--0-0-----5-8--||--5-8--8\-0--0-0-----5-8--8\-0--0-0-----5-8--|
|----------------------------------------------------||----------------------------------------------------||----------------------------------------------------||--101010101010101010101010101010101010101010101010--||--8-8-8-8-8-8-8-8-8-8-8-8-8-8-8-8-8-8-8-8-8-8-8-8---||--8-8-8-8-8-8-8-8-8-8-8-8-8-8-8-8-8-8-8-8-8-8-8-8---|
|-----------------------------||-----------------------------||-------------------10101010--||--0-0-0-0-0-0-0-0--x-x-x-x---||--0-0-0-0-0-0-0-0--8-8-8-8---||--0-0-0-0-0-0-0-0------------|
PM . . . . . . . .|----------------------------------------------------||----------------------------------------------------||----------------------------------------------------||--101010101010101010101010101010101010101010101010--||--8-8-8-8-8-8-8-8-8-8-8-8-8-8-8-8-8-8-8-8-8-8-8-8---||--8-8-8-8-8-8-8-8-8-8-8-8-8-8-8-8-8-8-8-8-8-8-8-8---|
|-----------------------||-----------------------||-------------10101010--||--0---0---0--x-x-x-x---||--0---0---0--8-8-8-8---||--0---0---0------------|
PM . . . |----------------------------------------------------||----------------------------------------------------||----------------------------------------------------||--101010101010101010101010101010101010101010101010--||--8-8-8-8-8-8-8-8-8-8-8-8-8-8-8-8-8-8-8-8-8-8-8-8---||--8-8-8-8-8-8-8-8-8-8-8-8-8-8-8-8-8-8-8-8-8-8-8-8---|
|-----------------------------||-----------------------------||-------------------10101010--||--0-0-0-0-0-0-0-0--x-x-x-x---||--0-0-0-0-0-0-0-0--8-8-8-8---||--0-0-0-0-0-0-0-0------------|
PM . . . . . . . .|----------------------------------------------------||----------------------------------------------------||----------------------------------------------------||--101010101010101010101010101010101010101010101010--||--8-8-8-8-8-8-8-8-8-8-8-8-8-8-8-8-8-8-8-8-8-8-8-8---||--8-8-8-8-8-8-8-8-8-8-8-8-8-8-8-8-8-8-8-8-8-8-8-8---|
|-----------------------------------------||-----------------------------------------||-----------------------------------------||--0---0---0---0---0---0---0~~-0~~-0~~-0--||--0---0---0---0---0---0---0~~-0~~-0~~-0--||--0---0---0---0---0---0---0~~-0~~-0~~-0--|PM . . . . . .
Chorus|------------------------------------||------------------------------------||------------------------------------||--10101010101010101010101010101010--||--8-8-8-8-8-8-8-8-8-8-8-8-8-8-8-8---||--8-8-8-8-8-8-8-8-8-8-8-8-8-8-8-8---|
|------------------------------------||------------------------------------||------------------------------------||--10101010101010101010101010101010--||--8-8-8-8-8-8-8-8-8-8-8-8-8-8-8-8---||--8-8-8-8-8-8-8-8-8-8-8-8-8-8-8-8---|
|-----------------------------------||-----------------------------------||-----------------------------------||--0-0-0-0-0-0-0-0-0-0-0-0-0-0-0-0--||--0-0-0-0-0-0-0-0-0-0-0-0-0-0-0-0--||--0-0-0-0-0-0-0-0-0-0-0-0-0-0-0-0--|
|---------------------------------------------------||---------------------------------------------------||---------------------------------------------------||--10-10-10-10-10-10-10-10-10-10-10-10-10-10-10-10--||--10-10-10-10-10-10-10-10-10-10-10-10-10-10-10-10--||--10-10-10-10-10-10-10-10-10-10-10-10-10-10-10-10--|Repeat X3
Break Down|-------------------------------------------||-------------------------------------------||-------------------------------------------||-------------------------------------------||-------------------------------------------||-------------------------------------------|
|-------------------------------------------|||-------------------------------------------|||-------------------------------------------|||--0---------0-----x-x0---------0-----0--0--||X2|--0-----5---0-----x-x0-----5---0-----0--0--|||--0h5h8-0-8-0h5h8-x-x0h5h8-0-8-0h5h8-0--0--||
|-------------------------------------------|||-------------------------------------------|||-------------------------------------------|||--0---------0--------0---------------0--0--||X2|--0-----5---0h5h8----0h5h8-5---------0--0--|||--0h5h8-0-8-0h5h8----0h5h8-0-8-0h5h8-0--0--||
Tap to rate this tab
 
# A B C D E F G H I J K L M N O P Q R S T U V W X Y Z